ISO-10303-21;
HEADER;
/* Generated by software containing ST-Developer
 * from STEP Tools, Inc. (www.steptools.com) 
 */

FILE_DESCRIPTION(
/* description */ (''),
/* implementation_level */ '2;1');

FILE_NAME(
/* name */ 'ISI2PF1195(R).stp',
/* time_stamp */ '2023-06-22T13:27:41+02:00',
/* author */ ('PatrickLyscarzSletti'),
/* organization */ (''),
/* preprocessor_version */ 'ST-DEVELOPER v19.2',
/* originating_system */ 'Autodesk Inventor 2023',
/* authorisation */ '');

FILE_SCHEMA (('AUTOMOTIVE_DESIGN { 1 0 10303 214 3 1 1 }'));
ENDSEC;

DATA;
#10=MECHANICAL_DESIGN_GEOMETRIC_PRESENTATION_REPRESENTATION('',(#13),#407);
#11=SHAPE_REPRESENTATION_RELATIONSHIP('SRR','None',#414,#12);
#12=ADVANCED_BREP_SHAPE_REPRESENTATION('',(#14),#406);
#13=STYLED_ITEM('',(#423),#14);
#14=MANIFOLD_SOLID_BREP('Solid1',#152);
#15=PLANE('',#182);
#16=PLANE('',#185);
#17=FACE_BOUND('',#39,.T.);
#18=FACE_BOUND('',#40,.T.);
#19=B_SPLINE_CURVE_WITH_KNOTS('',3,(#240,#241,#242,#243,#244,#245,#246,
#247,#248,#249,#250,#251,#252,#253,#254,#255,#256,#257,#258),
 .UNSPECIFIED.,.F.,.F.,(4,2,2,2,3,2,2,2,4),(1.81642452063572,1.9677826479276,
2.11914077521949,2.27052006803356,2.42189936084763,2.5732786536617,2.72465794647577,
2.87601607376765,3.02737420105953),.UNSPECIFIED.);
#20=B_SPLINE_CURVE_WITH_KNOTS('',3,(#262,#263,#264,#265,#266,#267,#268,
#269,#270,#271,#272,#273,#274,#275,#276,#277,#278,#279,#280),
 .UNSPECIFIED.,.F.,.F.,(4,2,2,2,3,2,2,2,4),(1.81642452063572,1.96778264792761,
2.11914077521949,2.27052006803356,2.42189936084763,2.5732786536617,2.72465794647577,
2.87601607376765,3.02737420105954),.UNSPECIFIED.);
#21=B_SPLINE_CURVE_WITH_KNOTS('',3,(#282,#283,#284,#285,#286,#287,#288,
#289,#290,#291,#292,#293,#294,#295,#296,#297,#298,#299),.UNSPECIFIED.,.F.,
 .F.,(4,2,2,2,2,2,2,2,4),(0.605474840211907,0.756832967503791,0.908191094795675,
1.05957038760974,1.21094968042381,1.36232897323788,1.51370826605195,1.66506639334384,
1.81642452063572),.UNSPECIFIED.);
#22=B_SPLINE_CURVE_WITH_KNOTS('',3,(#300,#301,#302,#303,#304,#305,#306,
#307,#308,#309,#310,#311,#312,#313,#314,#315,#316,#317),.UNSPECIFIED.,.F.,
 .F.,(4,2,2,2,2,2,2,2,4),(0.605474840211907,0.756832967503791,0.908191094795676,
1.05957038760974,1.21094968042381,1.36232897323788,1.51370826605195,1.66506639334384,
1.81642452063572),.UNSPECIFIED.);
#23=B_SPLINE_CURVE_WITH_KNOTS('',3,(#320,#321,#322,#323,#324,#325,#326,
#327,#328,#329,#330,#331,#332,#333,#334,#335,#336,#337,#338,#339,#340,#341,
#342,#343,#344,#345),.UNSPECIFIED.,.F.,.F.,(4,2,2,2,2,2,2,2,2,2,2,2,4),
(0.,0.151379292814069,0.302758585628138,0.454116712920022,0.605474840211907,
0.756832967503791,0.908191094795675,1.05957038760974,1.21094968042381,1.36232897323788,
1.51370826605195,1.66506639334384,1.81642452063572),.UNSPECIFIED.);
#24=B_SPLINE_CURVE_WITH_KNOTS('',3,(#346,#347,#348,#349,#350,#351,#352,
#353,#354,#355),.UNSPECIFIED.,.F.,.F.,(4,2,2,2,4),(1.81642452063572,1.9677826479276,
2.11914077521949,2.27052006803356,2.42189936084763),.UNSPECIFIED.);
#25=B_SPLINE_CURVE_WITH_KNOTS('',3,(#358,#359,#360,#361,#362,#363,#364,
#365,#366,#367,#368,#369,#370,#371,#372,#373,#374,#375,#376,#377,#378,#379,
#380,#381,#382,#383),.UNSPECIFIED.,.F.,.F.,(4,2,2,2,2,2,2,2,2,2,2,2,4),
(0.,0.151379292814069,0.302758585628139,0.454116712920023,0.605474840211907,
0.756832967503791,0.908191094795675,1.05957038760974,1.21094968042381,1.36232897323788,
1.51370826605195,1.66506639334384,1.81642452063572),.UNSPECIFIED.);
#26=B_SPLINE_CURVE_WITH_KNOTS('',3,(#384,#385,#386,#387,#388,#389,#390,
#391,#392,#393),.UNSPECIFIED.,.F.,.F.,(4,2,2,2,4),(1.81642452063572,1.96778264792761,
2.11914077521949,2.27052006803356,2.42189936084763),.UNSPECIFIED.);
#27=CYLINDRICAL_SURFACE('',#179,16.);
#28=CYLINDRICAL_SURFACE('',#186,4.);
#29=CYLINDRICAL_SURFACE('',#187,4.);
#30=FACE_OUTER_BOUND('',#37,.T.);
#31=FACE_OUTER_BOUND('',#38,.T.);
#32=FACE_OUTER_BOUND('',#41,.T.);
#33=FACE_OUTER_BOUND('',#42,.T.);
#34=FACE_OUTER_BOUND('',#43,.T.);
#35=FACE_OUTER_BOUND('',#44,.T.);
#36=FACE_OUTER_BOUND('',#45,.T.);
#37=EDGE_LOOP('',(#101,#102,#103,#104,#105));
#38=EDGE_LOOP('',(#106,#107,#108,#109,#110,#111,#112,#113,#114,#115,#116,
#117,#118,#119));
#39=EDGE_LOOP('',(#120,#121));
#40=EDGE_LOOP('',(#122,#123));
#41=EDGE_LOOP('',(#124));
#42=EDGE_LOOP('',(#125,#126,#127,#128,#129));
#43=EDGE_LOOP('',(#130));
#44=EDGE_LOOP('',(#131,#132,#133,#134,#135,#136));
#45=EDGE_LOOP('',(#137,#138,#139,#140,#141,#142));
#46=LINE('',#230,#53);
#47=LINE('',#238,#54);
#48=LINE('',#260,#55);
#49=LINE('',#281,#56);
#50=LINE('',#398,#57);
#51=LINE('',#401,#58);
#52=LINE('',#403,#59);
#53=VECTOR('',#196,15.5);
#54=VECTOR('',#205,16.);
#55=VECTOR('',#206,16.);
#56=VECTOR('',#207,16.);
#57=VECTOR('',#214,15.5);
#58=VECTOR('',#219,4.);
#59=VECTOR('',#222,4.);
#60=CIRCLE('',#176,16.);
#61=CIRCLE('',#177,16.);
#62=CIRCLE('',#178,15.);
#63=CIRCLE('',#180,16.);
#64=CIRCLE('',#181,16.);
#65=CIRCLE('',#184,15.);
#66=VERTEX_POINT('',#225);
#67=VERTEX_POINT('',#226);
#68=VERTEX_POINT('',#229);
#69=VERTEX_POINT('',#233);
#70=VERTEX_POINT('',#234);
#71=VERTEX_POINT('',#237);
#72=VERTEX_POINT('',#239);
#73=VERTEX_POINT('',#259);
#74=VERTEX_POINT('',#261);
#75=VERTEX_POINT('',#318);
#76=VERTEX_POINT('',#319);
#77=VERTEX_POINT('',#356);
#78=VERTEX_POINT('',#357);
#79=VERTEX_POINT('',#396);
#80=EDGE_CURVE('',#66,#67,#60,.T.);
#81=EDGE_CURVE('',#67,#66,#61,.T.);
#82=EDGE_CURVE('',#66,#68,#46,.T.);
#83=EDGE_CURVE('',#68,#68,#62,.T.);
#84=EDGE_CURVE('',#69,#70,#63,.T.);
#85=EDGE_CURVE('',#70,#69,#64,.T.);
#86=EDGE_CURVE('',#70,#71,#47,.T.);
#87=EDGE_CURVE('',#71,#72,#19,.T.);
#88=EDGE_CURVE('',#72,#73,#48,.T.);
#89=EDGE_CURVE('',#73,#74,#20,.T.);
#90=EDGE_CURVE('',#74,#67,#49,.T.);
#91=EDGE_CURVE('',#74,#73,#21,.T.);
#92=EDGE_CURVE('',#72,#71,#22,.T.);
#93=EDGE_CURVE('',#75,#76,#23,.T.);
#94=EDGE_CURVE('',#76,#75,#24,.T.);
#95=EDGE_CURVE('',#77,#78,#25,.T.);
#96=EDGE_CURVE('',#78,#77,#26,.T.);
#97=EDGE_CURVE('',#79,#79,#65,.T.);
#98=EDGE_CURVE('',#79,#69,#50,.T.);
#99=EDGE_CURVE('',#72,#76,#51,.T.);
#100=EDGE_CURVE('',#74,#78,#52,.T.);
#101=ORIENTED_EDGE('',*,*,#80,.T.);
#102=ORIENTED_EDGE('',*,*,#81,.T.);
#103=ORIENTED_EDGE('',*,*,#82,.T.);
#104=ORIENTED_EDGE('',*,*,#83,.T.);
#105=ORIENTED_EDGE('',*,*,#82,.F.);
#106=ORIENTED_EDGE('',*,*,#84,.F.);
#107=ORIENTED_EDGE('',*,*,#85,.F.);
#108=ORIENTED_EDGE('',*,*,#86,.T.);
#109=ORIENTED_EDGE('',*,*,#87,.T.);
#110=ORIENTED_EDGE('',*,*,#88,.T.);
#111=ORIENTED_EDGE('',*,*,#89,.T.);
#112=ORIENTED_EDGE('',*,*,#90,.T.);
#113=ORIENTED_EDGE('',*,*,#80,.F.);
#114=ORIENTED_EDGE('',*,*,#81,.F.);
#115=ORIENTED_EDGE('',*,*,#90,.F.);
#116=ORIENTED_EDGE('',*,*,#91,.T.);
#117=ORIENTED_EDGE('',*,*,#88,.F.);
#118=ORIENTED_EDGE('',*,*,#92,.T.);
#119=ORIENTED_EDGE('',*,*,#86,.F.);
#120=ORIENTED_EDGE('',*,*,#93,.T.);
#121=ORIENTED_EDGE('',*,*,#94,.T.);
#122=ORIENTED_EDGE('',*,*,#95,.T.);
#123=ORIENTED_EDGE('',*,*,#96,.T.);
#124=ORIENTED_EDGE('',*,*,#83,.F.);
#125=ORIENTED_EDGE('',*,*,#97,.T.);
#126=ORIENTED_EDGE('',*,*,#98,.T.);
#127=ORIENTED_EDGE('',*,*,#84,.T.);
#128=ORIENTED_EDGE('',*,*,#85,.T.);
#129=ORIENTED_EDGE('',*,*,#98,.F.);
#130=ORIENTED_EDGE('',*,*,#97,.F.);
#131=ORIENTED_EDGE('',*,*,#92,.F.);
#132=ORIENTED_EDGE('',*,*,#99,.T.);
#133=ORIENTED_EDGE('',*,*,#93,.F.);
#134=ORIENTED_EDGE('',*,*,#94,.F.);
#135=ORIENTED_EDGE('',*,*,#99,.F.);
#136=ORIENTED_EDGE('',*,*,#87,.F.);
#137=ORIENTED_EDGE('',*,*,#91,.F.);
#138=ORIENTED_EDGE('',*,*,#100,.T.);
#139=ORIENTED_EDGE('',*,*,#95,.F.);
#140=ORIENTED_EDGE('',*,*,#96,.F.);
#141=ORIENTED_EDGE('',*,*,#100,.F.);
#142=ORIENTED_EDGE('',*,*,#89,.F.);
#143=CONICAL_SURFACE('',#175,15.5,0.785398163397449);
#144=CONICAL_SURFACE('',#183,15.5,0.785398163397451);
#145=ADVANCED_FACE('',(#30),#143,.T.);
#146=ADVANCED_FACE('',(#31,#17,#18),#27,.T.);
#147=ADVANCED_FACE('',(#32),#15,.F.);
#148=ADVANCED_FACE('',(#33),#144,.T.);
#149=ADVANCED_FACE('',(#34),#16,.T.);
#150=ADVANCED_FACE('',(#35),#28,.F.);
#151=ADVANCED_FACE('',(#36),#29,.F.);
#152=CLOSED_SHELL('',(#145,#146,#147,#148,#149,#150,#151));
#153=DERIVED_UNIT_ELEMENT(#156,1.);
#154=DERIVED_UNIT_ELEMENT(#409,-3.);
#155=DIMENSIONAL_EXPONENTS(0.,1.,0.,0.,0.,0.,0.);
#156=(
CONVERSION_BASED_UNIT('gram',#158)
MASS_UNIT()
NAMED_UNIT(#155)
);
#157=(
MASS_UNIT()
NAMED_UNIT(*)
SI_UNIT(.KILO.,.GRAM.)
);
#158=MASS_MEASURE_WITH_UNIT(MASS_MEASURE(0.001),#157);
#159=DERIVED_UNIT((#153,#154));
#160=MEASURE_REPRESENTATION_ITEM('density measure',
POSITIVE_RATIO_MEASURE(7.85),#159);
#161=PROPERTY_DEFINITION_REPRESENTATION(#166,#163);
#162=PROPERTY_DEFINITION_REPRESENTATION(#167,#164);
#163=REPRESENTATION('material name',(#165),#406);
#164=REPRESENTATION('density',(#160),#406);
#165=DESCRIPTIVE_REPRESENTATION_ITEM('Steel, Galvanized',
'Steel, Galvanized');
#166=PROPERTY_DEFINITION('material property','material name',#416);
#167=PROPERTY_DEFINITION('material property','density of part',#416);
#168=DATE_TIME_ROLE('creation_date');
#169=APPLIED_DATE_AND_TIME_ASSIGNMENT(#170,#168,(#416));
#170=DATE_AND_TIME(#171,#172);
#171=CALENDAR_DATE(2023,14,6);
#172=LOCAL_TIME(0,0,0.,#173);
#173=COORDINATED_UNIVERSAL_TIME_OFFSET(0,0,.BEHIND.);
#174=AXIS2_PLACEMENT_3D('',#223,#188,#189);
#175=AXIS2_PLACEMENT_3D('',#224,#190,#191);
#176=AXIS2_PLACEMENT_3D('',#227,#192,#193);
#177=AXIS2_PLACEMENT_3D('',#228,#194,#195);
#178=AXIS2_PLACEMENT_3D('',#231,#197,#198);
#179=AXIS2_PLACEMENT_3D('',#232,#199,#200);
#180=AXIS2_PLACEMENT_3D('',#235,#201,#202);
#181=AXIS2_PLACEMENT_3D('',#236,#203,#204);
#182=AXIS2_PLACEMENT_3D('',#394,#208,#209);
#183=AXIS2_PLACEMENT_3D('',#395,#210,#211);
#184=AXIS2_PLACEMENT_3D('',#397,#212,#213);
#185=AXIS2_PLACEMENT_3D('',#399,#215,#216);
#186=AXIS2_PLACEMENT_3D('',#400,#217,#218);
#187=AXIS2_PLACEMENT_3D('',#402,#220,#221);
#188=DIRECTION('axis',(0.,0.,1.));
#189=DIRECTION('refdir',(1.,0.,0.));
#190=DIRECTION('center_axis',(0.,1.,0.));
#191=DIRECTION('ref_axis',(1.,0.,0.));
#192=DIRECTION('center_axis',(0.,-1.,0.));
#193=DIRECTION('ref_axis',(1.,0.,0.));
#194=DIRECTION('center_axis',(0.,-1.,0.));
#195=DIRECTION('ref_axis',(1.,0.,0.));
#196=DIRECTION('',(0.707106781186548,-0.707106781186547,-8.65956056235494E-17));
#197=DIRECTION('center_axis',(0.,1.,0.));
#198=DIRECTION('ref_axis',(1.,0.,0.));
#199=DIRECTION('center_axis',(0.,1.,0.));
#200=DIRECTION('ref_axis',(-1.,0.,0.));
#201=DIRECTION('center_axis',(0.,1.,0.));
#202=DIRECTION('ref_axis',(1.,0.,0.));
#203=DIRECTION('center_axis',(0.,1.,0.));
#204=DIRECTION('ref_axis',(1.,0.,0.));
#205=DIRECTION('',(0.,-1.,0.));
#206=DIRECTION('',(0.,-1.,0.));
#207=DIRECTION('',(0.,-1.,0.));
#208=DIRECTION('center_axis',(0.,1.,0.));
#209=DIRECTION('ref_axis',(0.,0.,1.));
#210=DIRECTION('center_axis',(0.,-1.,0.));
#211=DIRECTION('ref_axis',(1.,0.,0.));
#212=DIRECTION('center_axis',(0.,-1.,0.));
#213=DIRECTION('ref_axis',(1.,0.,0.));
#214=DIRECTION('',(-0.707106781186549,-0.707106781186546,8.65956056235495E-17));
#215=DIRECTION('center_axis',(0.,1.,0.));
#216=DIRECTION('ref_axis',(0.,0.,1.));
#217=DIRECTION('center_axis',(1.,0.,0.));
#218=DIRECTION('ref_axis',(0.,1.,0.));
#219=DIRECTION('',(-1.,0.,0.));
#220=DIRECTION('center_axis',(1.,0.,0.));
#221=DIRECTION('ref_axis',(0.,1.,0.));
#222=DIRECTION('',(-1.,0.,0.));
#223=CARTESIAN_POINT('',(0.,0.,0.));
#224=CARTESIAN_POINT('Origin',(0.,0.5,0.));
#225=CARTESIAN_POINT('',(-16.,1.,-1.95943487863577E-15));
#226=CARTESIAN_POINT('',(16.,1.,-1.95943487863577E-15));
#227=CARTESIAN_POINT('Origin',(0.,1.,0.));
#228=CARTESIAN_POINT('Origin',(0.,1.,0.));
#229=CARTESIAN_POINT('',(-15.,0.,1.83697019872103E-15));
#230=CARTESIAN_POINT('',(-15.5,0.5,1.8982025386784E-15));
#231=CARTESIAN_POINT('Origin',(0.,0.,0.));
#232=CARTESIAN_POINT('Origin',(0.,0.,0.));
#233=CARTESIAN_POINT('',(-16.,152.,1.95943487863577E-15));
#234=CARTESIAN_POINT('',(16.,152.,-1.95943487863577E-15));
#235=CARTESIAN_POINT('Origin',(0.,152.,0.));
#236=CARTESIAN_POINT('Origin',(0.,152.,0.));
#237=CARTESIAN_POINT('',(16.,148.,-2.61011170614548E-16));
#238=CARTESIAN_POINT('',(16.,0.,-1.95943487863577E-15));
#239=CARTESIAN_POINT('',(16.,140.,-1.84889274661175E-31));
#240=CARTESIAN_POINT('Ctrl Pts',(16.,148.,-2.08166817117217E-15));
#241=CARTESIAN_POINT('Ctrl Pts',(16.,148.,-0.50452709097295));
#242=CARTESIAN_POINT('Ctrl Pts',(15.9737464039182,147.89873348412,-1.04124262326599));
#243=CARTESIAN_POINT('Ctrl Pts',(15.8789001512135,147.489845037229,-2.02615161840818));
#244=CARTESIAN_POINT('Ctrl Pts',(15.8115801867098,147.182338941206,-2.47451530828612));
#245=CARTESIAN_POINT('Ctrl Pts',(15.6844424206536,146.474465818189,-3.18238843130327));
#246=CARTESIAN_POINT('Ctrl Pts',(15.6161791111572,146.026122740122,-3.48985594046455));
#247=CARTESIAN_POINT('Ctrl Pts',(15.5191545386274,145.041286832042,-3.89871621635982));
#248=CARTESIAN_POINT('Ctrl Pts',(15.4919333848297,144.504597642714,-4.));
#249=CARTESIAN_POINT('Ctrl Pts',(15.4919333848297,144.,-4.));
#250=CARTESIAN_POINT('Ctrl Pts',(15.4919333848297,143.495402357286,-4.));
#251=CARTESIAN_POINT('Ctrl Pts',(15.5191545386274,142.958713167958,-3.89871621635981));
#252=CARTESIAN_POINT('Ctrl Pts',(15.6161791111572,141.973877259878,-3.48985594046454));
#253=CARTESIAN_POINT('Ctrl Pts',(15.6844424206536,141.525534181811,-3.18238843130327));
#254=CARTESIAN_POINT('Ctrl Pts',(15.8115801867098,140.817661058794,-2.47451530828612));
#255=CARTESIAN_POINT('Ctrl Pts',(15.8789001512135,140.510154962771,-2.02615161840818));
#256=CARTESIAN_POINT('Ctrl Pts',(15.9737464039182,140.10126651588,-1.04124262326599));
#257=CARTESIAN_POINT('Ctrl Pts',(16.,140.,-0.504527090972948));
#258=CARTESIAN_POINT('Ctrl Pts',(16.,140.,2.08166817117217E-16));
#259=CARTESIAN_POINT('',(16.,13.,-2.61011170614548E-16));
#260=CARTESIAN_POINT('',(16.,0.,-1.95943487863577E-15));
#261=CARTESIAN_POINT('',(16.,5.,-1.84889274661175E-31));
#262=CARTESIAN_POINT('Ctrl Pts',(16.,13.,0.));
#263=CARTESIAN_POINT('Ctrl Pts',(16.,13.,-0.504527090972947));
#264=CARTESIAN_POINT('Ctrl Pts',(15.9737464039182,12.8987334841202,-1.04124262326598));
#265=CARTESIAN_POINT('Ctrl Pts',(15.8789001512135,12.4898450372291,-2.02615161840817));
#266=CARTESIAN_POINT('Ctrl Pts',(15.8115801867098,12.1823389412063,-2.47451530828612));
#267=CARTESIAN_POINT('Ctrl Pts',(15.6844424206536,11.4744658181891,-3.18238843130327));
#268=CARTESIAN_POINT('Ctrl Pts',(15.6161791111572,11.0261227401217,-3.48985594046454));
#269=CARTESIAN_POINT('Ctrl Pts',(15.5191545386274,10.041286832042,-3.89871621635982));
#270=CARTESIAN_POINT('Ctrl Pts',(15.4919333848297,9.50459764271356,-4.));
#271=CARTESIAN_POINT('Ctrl Pts',(15.4919333848297,9.,-4.));
#272=CARTESIAN_POINT('Ctrl Pts',(15.4919333848297,8.49540235728644,-4.));
#273=CARTESIAN_POINT('Ctrl Pts',(15.5191545386274,7.958713167958,-3.89871621635982));
#274=CARTESIAN_POINT('Ctrl Pts',(15.6161791111572,6.97387725987827,-3.48985594046454));
#275=CARTESIAN_POINT('Ctrl Pts',(15.6844424206536,6.52553418181089,-3.18238843130327));
#276=CARTESIAN_POINT('Ctrl Pts',(15.8115801867098,5.81766105879374,-2.47451530828612));
#277=CARTESIAN_POINT('Ctrl Pts',(15.8789001512135,5.51015496277091,-2.02615161840817));
#278=CARTESIAN_POINT('Ctrl Pts',(15.9737464039182,5.10126651587978,-1.04124262326598));
#279=CARTESIAN_POINT('Ctrl Pts',(16.,5.,-0.504527090972947));
#280=CARTESIAN_POINT('Ctrl Pts',(16.,5.,1.38777878078145E-16));
#281=CARTESIAN_POINT('',(16.,0.,-1.95943487863577E-15));
#282=CARTESIAN_POINT('Ctrl Pts',(16.,5.,2.77555756156289E-16));
#283=CARTESIAN_POINT('Ctrl Pts',(16.,5.,0.504527090972948));
#284=CARTESIAN_POINT('Ctrl Pts',(15.9737464039182,5.10126651587978,1.04124262326598));
#285=CARTESIAN_POINT('Ctrl Pts',(15.8789001512135,5.51015496277091,2.02615161840818));
#286=CARTESIAN_POINT('Ctrl Pts',(15.8115801867098,5.81766105879374,2.47451530828612));
#287=CARTESIAN_POINT('Ctrl Pts',(15.6844424206536,6.52553418181089,3.18238843130327));
#288=CARTESIAN_POINT('Ctrl Pts',(15.6161791111572,6.97387725987827,3.48985594046454));
#289=CARTESIAN_POINT('Ctrl Pts',(15.5191545386274,7.958713167958,3.89871621635982));
#290=CARTESIAN_POINT('Ctrl Pts',(15.4919333848297,8.49540235728644,4.));
#291=CARTESIAN_POINT('Ctrl Pts',(15.4919333848297,9.50459764271356,4.));
#292=CARTESIAN_POINT('Ctrl Pts',(15.5191545386274,10.041286832042,3.89871621635982));
#293=CARTESIAN_POINT('Ctrl Pts',(15.6161791111572,11.0261227401217,3.48985594046454));
#294=CARTESIAN_POINT('Ctrl Pts',(15.6844424206536,11.4744658181891,3.18238843130327));
#295=CARTESIAN_POINT('Ctrl Pts',(15.8115801867098,12.1823389412063,2.47451530828612));
#296=CARTESIAN_POINT('Ctrl Pts',(15.8789001512135,12.4898450372291,2.02615161840817));
#297=CARTESIAN_POINT('Ctrl Pts',(15.9737464039182,12.8987334841202,1.04124262326598));
#298=CARTESIAN_POINT('Ctrl Pts',(16.,13.,0.504527090972947));
#299=CARTESIAN_POINT('Ctrl Pts',(16.,13.,-4.16333634234434E-16));
#300=CARTESIAN_POINT('Ctrl Pts',(16.,140.,5.55111512312578E-16));
#301=CARTESIAN_POINT('Ctrl Pts',(16.,140.,0.504527090972949));
#302=CARTESIAN_POINT('Ctrl Pts',(15.9737464039182,140.10126651588,1.04124262326599));
#303=CARTESIAN_POINT('Ctrl Pts',(15.8789001512135,140.510154962771,2.02615161840819));
#304=CARTESIAN_POINT('Ctrl Pts',(15.8115801867098,140.817661058794,2.47451530828612));
#305=CARTESIAN_POINT('Ctrl Pts',(15.6844424206536,141.525534181811,3.18238843130327));
#306=CARTESIAN_POINT('Ctrl Pts',(15.6161791111572,141.973877259878,3.48985594046455));
#307=CARTESIAN_POINT('Ctrl Pts',(15.5191545386274,142.958713167958,3.89871621635982));
#308=CARTESIAN_POINT('Ctrl Pts',(15.4919333848297,143.495402357286,4.));
#309=CARTESIAN_POINT('Ctrl Pts',(15.4919333848297,144.504597642714,4.));
#310=CARTESIAN_POINT('Ctrl Pts',(15.5191545386274,145.041286832042,3.89871621635981));
#311=CARTESIAN_POINT('Ctrl Pts',(15.6161791111572,146.026122740122,3.48985594046454));
#312=CARTESIAN_POINT('Ctrl Pts',(15.6844424206536,146.474465818189,3.18238843130327));
#313=CARTESIAN_POINT('Ctrl Pts',(15.8115801867098,147.182338941206,2.47451530828612));
#314=CARTESIAN_POINT('Ctrl Pts',(15.8789001512135,147.489845037229,2.02615161840816));
#315=CARTESIAN_POINT('Ctrl Pts',(15.9737464039182,147.89873348412,1.04124262326597));
#316=CARTESIAN_POINT('Ctrl Pts',(16.,148.,0.504527090972948));
#317=CARTESIAN_POINT('Ctrl Pts',(16.,148.,8.32667268468867E-16));
#318=CARTESIAN_POINT('',(-15.4919333848297,144.,-4.));
#319=CARTESIAN_POINT('',(-16.,140.,-7.50869890273489E-16));
#320=CARTESIAN_POINT('Ctrl Pts',(-15.4919333848297,144.,-4.));
#321=CARTESIAN_POINT('Ctrl Pts',(-15.4919333848297,144.504597642714,-4.));
#322=CARTESIAN_POINT('Ctrl Pts',(-15.5191545386274,145.041286832042,-3.89871621635981));
#323=CARTESIAN_POINT('Ctrl Pts',(-15.6161791111572,146.026122740122,-3.48985594046454));
#324=CARTESIAN_POINT('Ctrl Pts',(-15.6844424206536,146.474465818189,-3.18238843130327));
#325=CARTESIAN_POINT('Ctrl Pts',(-15.8115801867098,147.182338941206,-2.47451530828612));
#326=CARTESIAN_POINT('Ctrl Pts',(-15.8789001512135,147.489845037229,-2.02615161840818));
#327=CARTESIAN_POINT('Ctrl Pts',(-15.9737464039182,147.89873348412,-1.04124262326599));
#328=CARTESIAN_POINT('Ctrl Pts',(-16.,148.,-0.504527090972948));
#329=CARTESIAN_POINT('Ctrl Pts',(-16.,148.,0.504527090972948));
#330=CARTESIAN_POINT('Ctrl Pts',(-15.9737464039182,147.89873348412,1.04124262326597));
#331=CARTESIAN_POINT('Ctrl Pts',(-15.8789001512135,147.489845037229,2.02615161840816));
#332=CARTESIAN_POINT('Ctrl Pts',(-15.8115801867098,147.182338941206,2.47451530828612));
#333=CARTESIAN_POINT('Ctrl Pts',(-15.6844424206536,146.474465818189,3.18238843130327));
#334=CARTESIAN_POINT('Ctrl Pts',(-15.6161791111572,146.026122740122,3.48985594046454));
#335=CARTESIAN_POINT('Ctrl Pts',(-15.5191545386274,145.041286832042,3.89871621635981));
#336=CARTESIAN_POINT('Ctrl Pts',(-15.4919333848297,144.504597642714,4.));
#337=CARTESIAN_POINT('Ctrl Pts',(-15.4919333848297,143.495402357286,4.));
#338=CARTESIAN_POINT('Ctrl Pts',(-15.5191545386274,142.958713167958,3.89871621635982));
#339=CARTESIAN_POINT('Ctrl Pts',(-15.6161791111572,141.973877259878,3.48985594046455));
#340=CARTESIAN_POINT('Ctrl Pts',(-15.6844424206536,141.525534181811,3.18238843130327));
#341=CARTESIAN_POINT('Ctrl Pts',(-15.8115801867098,140.817661058794,2.47451530828612));
#342=CARTESIAN_POINT('Ctrl Pts',(-15.8789001512135,140.510154962771,2.02615161840818));
#343=CARTESIAN_POINT('Ctrl Pts',(-15.9737464039182,140.10126651588,1.04124262326599));
#344=CARTESIAN_POINT('Ctrl Pts',(-16.,140.,0.50452709097295));
#345=CARTESIAN_POINT('Ctrl Pts',(-16.,140.,2.35922392732846E-15));
#346=CARTESIAN_POINT('Ctrl Pts',(-16.,140.,-1.52655665885959E-15));
#347=CARTESIAN_POINT('Ctrl Pts',(-16.,140.,-0.504527090972949));
#348=CARTESIAN_POINT('Ctrl Pts',(-15.9737464039182,140.10126651588,-1.04124262326599));
#349=CARTESIAN_POINT('Ctrl Pts',(-15.8789001512135,140.510154962771,-2.02615161840818));
#350=CARTESIAN_POINT('Ctrl Pts',(-15.8115801867098,140.817661058794,-2.47451530828612));
#351=CARTESIAN_POINT('Ctrl Pts',(-15.6844424206536,141.525534181811,-3.18238843130327));
#352=CARTESIAN_POINT('Ctrl Pts',(-15.6161791111572,141.973877259878,-3.48985594046453));
#353=CARTESIAN_POINT('Ctrl Pts',(-15.5191545386274,142.958713167958,-3.89871621635981));
#354=CARTESIAN_POINT('Ctrl Pts',(-15.4919333848297,143.495402357286,-4.));
#355=CARTESIAN_POINT('Ctrl Pts',(-15.4919333848297,144.,-4.));
#356=CARTESIAN_POINT('',(-15.4919333848297,9.,-4.));
#357=CARTESIAN_POINT('',(-16.,5.,-7.50869890273489E-16));
#358=CARTESIAN_POINT('Ctrl Pts',(-15.4919333848297,9.,-4.));
#359=CARTESIAN_POINT('Ctrl Pts',(-15.4919333848297,9.50459764271356,-4.));
#360=CARTESIAN_POINT('Ctrl Pts',(-15.5191545386274,10.041286832042,-3.89871621635982));
#361=CARTESIAN_POINT('Ctrl Pts',(-15.6161791111572,11.0261227401217,-3.48985594046454));
#362=CARTESIAN_POINT('Ctrl Pts',(-15.6844424206536,11.4744658181891,-3.18238843130327));
#363=CARTESIAN_POINT('Ctrl Pts',(-15.8115801867098,12.1823389412063,-2.47451530828612));
#364=CARTESIAN_POINT('Ctrl Pts',(-15.8789001512135,12.4898450372291,-2.02615161840817));
#365=CARTESIAN_POINT('Ctrl Pts',(-15.9737464039182,12.8987334841202,-1.04124262326598));
#366=CARTESIAN_POINT('Ctrl Pts',(-16.,13.,-0.504527090972948));
#367=CARTESIAN_POINT('Ctrl Pts',(-16.,13.,0.504527090972947));
#368=CARTESIAN_POINT('Ctrl Pts',(-15.9737464039182,12.8987334841202,1.04124262326598));
#369=CARTESIAN_POINT('Ctrl Pts',(-15.8789001512135,12.4898450372291,2.02615161840817));
#370=CARTESIAN_POINT('Ctrl Pts',(-15.8115801867098,12.1823389412063,2.47451530828612));
#371=CARTESIAN_POINT('Ctrl Pts',(-15.6844424206536,11.4744658181891,3.18238843130327));
#372=CARTESIAN_POINT('Ctrl Pts',(-15.6161791111572,11.0261227401217,3.48985594046454));
#373=CARTESIAN_POINT('Ctrl Pts',(-15.5191545386274,10.041286832042,3.89871621635982));
#374=CARTESIAN_POINT('Ctrl Pts',(-15.4919333848297,9.50459764271356,4.));
#375=CARTESIAN_POINT('Ctrl Pts',(-15.4919333848297,8.49540235728644,4.));
#376=CARTESIAN_POINT('Ctrl Pts',(-15.5191545386274,7.958713167958,3.89871621635982));
#377=CARTESIAN_POINT('Ctrl Pts',(-15.6161791111572,6.97387725987827,3.48985594046454));
#378=CARTESIAN_POINT('Ctrl Pts',(-15.6844424206536,6.52553418181089,3.18238843130327));
#379=CARTESIAN_POINT('Ctrl Pts',(-15.8115801867098,5.81766105879374,2.47451530828612));
#380=CARTESIAN_POINT('Ctrl Pts',(-15.8789001512135,5.51015496277091,2.02615161840818));
#381=CARTESIAN_POINT('Ctrl Pts',(-15.9737464039182,5.10126651587978,1.04124262326598));
#382=CARTESIAN_POINT('Ctrl Pts',(-16.,5.,0.504527090972948));
#383=CARTESIAN_POINT('Ctrl Pts',(-16.,5.,2.77555756156289E-16));
#384=CARTESIAN_POINT('Ctrl Pts',(-16.,5.,2.77555756156289E-16));
#385=CARTESIAN_POINT('Ctrl Pts',(-16.,5.,-0.504527090972947));
#386=CARTESIAN_POINT('Ctrl Pts',(-15.9737464039182,5.10126651587978,-1.04124262326598));
#387=CARTESIAN_POINT('Ctrl Pts',(-15.8789001512135,5.51015496277091,-2.02615161840817));
#388=CARTESIAN_POINT('Ctrl Pts',(-15.8115801867098,5.81766105879374,-2.47451530828612));
#389=CARTESIAN_POINT('Ctrl Pts',(-15.6844424206536,6.52553418181089,-3.18238843130327));
#390=CARTESIAN_POINT('Ctrl Pts',(-15.6161791111572,6.97387725987827,-3.48985594046454));
#391=CARTESIAN_POINT('Ctrl Pts',(-15.5191545386274,7.958713167958,-3.89871621635982));
#392=CARTESIAN_POINT('Ctrl Pts',(-15.4919333848297,8.49540235728644,-4.));
#393=CARTESIAN_POINT('Ctrl Pts',(-15.4919333848297,9.,-4.));
#394=CARTESIAN_POINT('Origin',(0.,0.,0.));
#395=CARTESIAN_POINT('Origin',(0.,152.5,0.));
#396=CARTESIAN_POINT('',(-15.,153.,-1.83697019872103E-15));
#397=CARTESIAN_POINT('Origin',(0.,153.,0.));
#398=CARTESIAN_POINT('',(-15.5,152.5,1.8982025386784E-15));
#399=CARTESIAN_POINT('Origin',(0.,153.,0.));
#400=CARTESIAN_POINT('Origin',(-143.552499196973,144.,-2.61011170614548E-16));
#401=CARTESIAN_POINT('',(-143.552499196973,140.,-7.50869890273489E-16));
#402=CARTESIAN_POINT('Origin',(-143.552499196973,9.,-2.61011170614548E-16));
#403=CARTESIAN_POINT('',(-143.552499196973,5.,-7.50869890273489E-16));
#404=UNCERTAINTY_MEASURE_WITH_UNIT(LENGTH_MEASURE(0.01),#408,
'DISTANCE_ACCURACY_VALUE',
'Maximum model space distance between geometric entities at asserted c
onnectivities');
#405=UNCERTAINTY_MEASURE_WITH_UNIT(LENGTH_MEASURE(0.01),#408,
'DISTANCE_ACCURACY_VALUE',
'Maximum model space distance between geometric entities at asserted c
onnectivities');
#406=(
GEOMETRIC_REPRESENTATION_CONTEXT(3)
GLOBAL_UNCERTAINTY_ASSIGNED_CONTEXT((#404))
GLOBAL_UNIT_ASSIGNED_CONTEXT((#408,#410,#411))
REPRESENTATION_CONTEXT('','3D')
);
#407=(
GEOMETRIC_REPRESENTATION_CONTEXT(3)
GLOBAL_UNCERTAINTY_ASSIGNED_CONTEXT((#405))
GLOBAL_UNIT_ASSIGNED_CONTEXT((#408,#410,#411))
REPRESENTATION_CONTEXT('','3D')
);
#408=(
LENGTH_UNIT()
NAMED_UNIT(*)
SI_UNIT(.MILLI.,.METRE.)
);
#409=(
LENGTH_UNIT()
NAMED_UNIT(*)
SI_UNIT(.CENTI.,.METRE.)
);
#410=(
NAMED_UNIT(*)
PLANE_ANGLE_UNIT()
SI_UNIT($,.RADIAN.)
);
#411=(
NAMED_UNIT(*)
SI_UNIT($,.STERADIAN.)
SOLID_ANGLE_UNIT()
);
#412=SHAPE_DEFINITION_REPRESENTATION(#413,#414);
#413=PRODUCT_DEFINITION_SHAPE('',$,#416);
#414=SHAPE_REPRESENTATION('',(#174),#406);
#415=PRODUCT_DEFINITION_CONTEXT('part definition',#420,'design');
#416=PRODUCT_DEFINITION('ISI2PF1195(R)','ISI2PF1195(R)',#417,#415);
#417=PRODUCT_DEFINITION_FORMATION('',$,#422);
#418=PRODUCT_RELATED_PRODUCT_CATEGORY('ISI2PF1195(R)','ISI2PF1195(R)',(#422));
#419=APPLICATION_PROTOCOL_DEFINITION('international standard',
'automotive_design',2009,#420);
#420=APPLICATION_CONTEXT(
'Core Data for Automotive Mechanical Design Process');
#421=PRODUCT_CONTEXT('part definition',#420,'mechanical');
#422=PRODUCT('ISI2PF1195(R)','ISI2PF1195(R)',$,(#421));
#423=PRESENTATION_STYLE_ASSIGNMENT((#424));
#424=SURFACE_STYLE_USAGE(.BOTH.,#427);
#425=SURFACE_STYLE_RENDERING_WITH_PROPERTIES($,#431,(#426));
#426=SURFACE_STYLE_TRANSPARENT(0.);
#427=SURFACE_SIDE_STYLE('',(#428,#425));
#428=SURFACE_STYLE_FILL_AREA(#429);
#429=FILL_AREA_STYLE('',(#430));
#430=FILL_AREA_STYLE_COLOUR('',#431);
#431=COLOUR_RGB('',0.745098039215686,0.737254901960784,0.729411764705882);
ENDSEC;
END-ISO-10303-21;
