ISO-10303-21;
HEADER;
/* Generated by software containing ST-Developer
 * from STEP Tools, Inc. (www.steptools.com) 
 */

FILE_DESCRIPTION(
/* description */ (''),
/* implementation_level */ '2;1');

FILE_NAME(
/* name */ 'A19723.stp',
/* time_stamp */ '2023-06-21T13:31:59+02:00',
/* author */ ('msn'),
/* organization */ (''),
/* preprocessor_version */ 'ST-DEVELOPER v19.2',
/* originating_system */ 'Autodesk Inventor 2024',
/* authorisation */ '');

FILE_SCHEMA (('AUTOMOTIVE_DESIGN { 1 0 10303 214 3 1 1 }'));
ENDSEC;

DATA;
#10=MECHANICAL_DESIGN_GEOMETRIC_PRESENTATION_REPRESENTATION('',(#13),#521);
#11=SHAPE_REPRESENTATION_RELATIONSHIP('SRR','None',#528,#12);
#12=ADVANCED_BREP_SHAPE_REPRESENTATION('',(#14),#520);
#13=STYLED_ITEM('',(#537),#14);
#14=MANIFOLD_SOLID_BREP('Solid1',#255);
#15=FACE_BOUND('',#52,.T.);
#16=FACE_BOUND('',#53,.T.);
#17=FACE_BOUND('',#56,.T.);
#18=B_SPLINE_CURVE_WITH_KNOTS('',3,(#388,#389,#390,#391,#392,#393,#394,
#395,#396,#397,#398,#399,#400,#401,#402,#403,#404,#405,#406),
 .UNSPECIFIED.,.F.,.F.,(4,2,2,2,3,2,2,2,4),(1.36136958458345,1.47481134317691,
1.58825310177037,1.70170627394082,1.81515944611127,1.92861261828171,2.04206579045216,
2.15550754904562,2.26894930763908),.UNSPECIFIED.);
#19=B_SPLINE_CURVE_WITH_KNOTS('',3,(#407,#408,#409,#410,#411,#412,#413,
#414,#415,#416,#417,#418,#419,#420,#421,#422,#423,#424,#425),
 .UNSPECIFIED.,.F.,.F.,(4,2,2,2,3,2,2,2,4),(1.36136958458345,1.47481134317691,
1.58825310177038,1.70170627394082,1.81515944611127,1.92861261828171,2.04206579045216,
2.15550754904562,2.26894930763908),.UNSPECIFIED.);
#20=B_SPLINE_CURVE_WITH_KNOTS('',3,(#428,#429,#430,#431,#432,#433,#434,
#435,#436,#437,#438,#439,#440,#441,#442,#443,#444,#445,#446),
 .UNSPECIFIED.,.F.,.F.,(4,2,2,2,3,2,2,2,4),(1.36136958458345,1.47481134317691,
1.58825310177037,1.70170627394082,1.81515944611127,1.92861261828171,2.04206579045216,
2.15550754904562,2.26894930763908),.UNSPECIFIED.);
#21=B_SPLINE_CURVE_WITH_KNOTS('',3,(#447,#448,#449,#450,#451,#452,#453,
#454,#455,#456,#457,#458,#459,#460,#461,#462,#463,#464,#465),
 .UNSPECIFIED.,.F.,.F.,(4,2,2,2,3,2,2,2,4),(1.36136958458345,1.47481134317691,
1.58825310177037,1.70170627394082,1.81515944611127,1.92861261828171,2.04206579045216,
2.15550754904562,2.26894930763908),.UNSPECIFIED.);
#22=CYLINDRICAL_SURFACE('',#282,13.);
#23=CYLINDRICAL_SURFACE('',#284,1.);
#24=CYLINDRICAL_SURFACE('',#292,1.);
#25=CYLINDRICAL_SURFACE('',#294,1.);
#26=CYLINDRICAL_SURFACE('',#297,1.);
#27=CYLINDRICAL_SURFACE('',#302,3.);
#28=PLANE('',#281);
#29=PLANE('',#287);
#30=PLANE('',#291);
#31=PLANE('',#296);
#32=PLANE('',#299);
#33=PLANE('',#300);
#34=PLANE('',#301);
#35=FACE_OUTER_BOUND('',#49,.T.);
#36=FACE_OUTER_BOUND('',#50,.T.);
#37=FACE_OUTER_BOUND('',#51,.T.);
#38=FACE_OUTER_BOUND('',#54,.T.);
#39=FACE_OUTER_BOUND('',#55,.T.);
#40=FACE_OUTER_BOUND('',#57,.T.);
#41=FACE_OUTER_BOUND('',#58,.T.);
#42=FACE_OUTER_BOUND('',#59,.T.);
#43=FACE_OUTER_BOUND('',#60,.T.);
#44=FACE_OUTER_BOUND('',#61,.T.);
#45=FACE_OUTER_BOUND('',#62,.T.);
#46=FACE_OUTER_BOUND('',#63,.T.);
#47=FACE_OUTER_BOUND('',#64,.T.);
#48=FACE_OUTER_BOUND('',#65,.T.);
#49=EDGE_LOOP('',(#172,#173,#174,#175));
#50=EDGE_LOOP('',(#176));
#51=EDGE_LOOP('',(#177,#178,#179,#180));
#52=EDGE_LOOP('',(#181,#182));
#53=EDGE_LOOP('',(#183,#184));
#54=EDGE_LOOP('',(#185,#186,#187,#188));
#55=EDGE_LOOP('',(#189,#190,#191,#192,#193,#194,#195,#196));
#56=EDGE_LOOP('',(#197));
#57=EDGE_LOOP('',(#198,#199,#200,#201));
#58=EDGE_LOOP('',(#202,#203,#204,#205));
#59=EDGE_LOOP('',(#206,#207,#208,#209));
#60=EDGE_LOOP('',(#210,#211,#212,#213));
#61=EDGE_LOOP('',(#214,#215,#216,#217));
#62=EDGE_LOOP('',(#218,#219,#220,#221));
#63=EDGE_LOOP('',(#222,#223,#224,#225));
#64=EDGE_LOOP('',(#226,#227,#228,#229,#230,#231,#232,#233));
#65=EDGE_LOOP('',(#234,#235,#236,#237,#238,#239));
#66=LINE('',#379,#85);
#67=LINE('',#384,#86);
#68=LINE('',#471,#87);
#69=LINE('',#474,#88);
#70=LINE('',#477,#89);
#71=LINE('',#481,#90);
#72=LINE('',#485,#91);
#73=LINE('',#488,#92);
#74=LINE('',#491,#93);
#75=LINE('',#492,#94);
#76=LINE('',#496,#95);
#77=LINE('',#501,#96);
#78=LINE('',#502,#97);
#79=LINE('',#505,#98);
#80=LINE('',#506,#99);
#81=LINE('',#510,#100);
#82=LINE('',#512,#101);
#83=LINE('',#514,#102);
#84=LINE('',#517,#103);
#85=VECTOR('',#309,12.);
#86=VECTOR('',#316,13.);
#87=VECTOR('',#323,10.);
#88=VECTOR('',#326,10.);
#89=VECTOR('',#329,10.);
#90=VECTOR('',#332,10.);
#91=VECTOR('',#335,10.);
#92=VECTOR('',#338,10.);
#93=VECTOR('',#341,10.);
#94=VECTOR('',#342,10.);
#95=VECTOR('',#347,10.);
#96=VECTOR('',#352,10.);
#97=VECTOR('',#353,10.);
#98=VECTOR('',#356,10.);
#99=VECTOR('',#357,10.);
#100=VECTOR('',#362,10.);
#101=VECTOR('',#365,10.);
#102=VECTOR('',#368,10.);
#103=VECTOR('',#373,3.);
#104=CIRCLE('',#279,13.);
#105=CIRCLE('',#280,11.);
#106=CIRCLE('',#283,13.);
#107=CIRCLE('',#285,1.);
#108=CIRCLE('',#286,1.);
#109=CIRCLE('',#288,1.);
#110=CIRCLE('',#289,1.);
#111=CIRCLE('',#290,1.);
#112=CIRCLE('',#293,1.);
#113=CIRCLE('',#295,1.);
#114=CIRCLE('',#298,1.);
#115=VERTEX_POINT('',#376);
#116=VERTEX_POINT('',#378);
#117=VERTEX_POINT('',#383);
#118=VERTEX_POINT('',#386);
#119=VERTEX_POINT('',#387);
#120=VERTEX_POINT('',#426);
#121=VERTEX_POINT('',#427);
#122=VERTEX_POINT('',#467);
#123=VERTEX_POINT('',#468);
#124=VERTEX_POINT('',#470);
#125=VERTEX_POINT('',#472);
#126=VERTEX_POINT('',#476);
#127=VERTEX_POINT('',#478);
#128=VERTEX_POINT('',#480);
#129=VERTEX_POINT('',#482);
#130=VERTEX_POINT('',#484);
#131=VERTEX_POINT('',#486);
#132=VERTEX_POINT('',#490);
#133=VERTEX_POINT('',#494);
#134=VERTEX_POINT('',#498);
#135=VERTEX_POINT('',#499);
#136=VERTEX_POINT('',#504);
#137=VERTEX_POINT('',#508);
#138=EDGE_CURVE('',#115,#115,#104,.T.);
#139=EDGE_CURVE('',#115,#116,#66,.T.);
#140=EDGE_CURVE('',#116,#116,#105,.T.);
#141=EDGE_CURVE('',#115,#117,#67,.T.);
#142=EDGE_CURVE('',#117,#117,#106,.T.);
#143=EDGE_CURVE('',#118,#119,#18,.T.);
#144=EDGE_CURVE('',#119,#118,#19,.T.);
#145=EDGE_CURVE('',#120,#121,#20,.T.);
#146=EDGE_CURVE('',#121,#120,#21,.T.);
#147=EDGE_CURVE('',#122,#123,#107,.T.);
#148=EDGE_CURVE('',#123,#124,#68,.T.);
#149=EDGE_CURVE('',#124,#125,#108,.T.);
#150=EDGE_CURVE('',#125,#122,#69,.T.);
#151=EDGE_CURVE('',#126,#124,#70,.T.);
#152=EDGE_CURVE('',#127,#126,#109,.T.);
#153=EDGE_CURVE('',#128,#127,#71,.T.);
#154=EDGE_CURVE('',#129,#128,#110,.T.);
#155=EDGE_CURVE('',#130,#129,#72,.T.);
#156=EDGE_CURVE('',#131,#130,#111,.T.);
#157=EDGE_CURVE('',#125,#131,#73,.T.);
#158=EDGE_CURVE('',#132,#123,#74,.T.);
#159=EDGE_CURVE('',#126,#132,#75,.T.);
#160=EDGE_CURVE('',#132,#133,#112,.T.);
#161=EDGE_CURVE('',#133,#127,#76,.T.);
#162=EDGE_CURVE('',#134,#135,#113,.T.);
#163=EDGE_CURVE('',#135,#129,#77,.T.);
#164=EDGE_CURVE('',#128,#134,#78,.T.);
#165=EDGE_CURVE('',#136,#135,#79,.T.);
#166=EDGE_CURVE('',#130,#136,#80,.T.);
#167=EDGE_CURVE('',#136,#137,#114,.T.);
#168=EDGE_CURVE('',#137,#131,#81,.T.);
#169=EDGE_CURVE('',#122,#137,#82,.T.);
#170=EDGE_CURVE('',#134,#133,#83,.T.);
#171=EDGE_CURVE('',#119,#121,#84,.T.);
#172=ORIENTED_EDGE('',*,*,#138,.T.);
#173=ORIENTED_EDGE('',*,*,#139,.T.);
#174=ORIENTED_EDGE('',*,*,#140,.T.);
#175=ORIENTED_EDGE('',*,*,#139,.F.);
#176=ORIENTED_EDGE('',*,*,#140,.F.);
#177=ORIENTED_EDGE('',*,*,#138,.F.);
#178=ORIENTED_EDGE('',*,*,#141,.T.);
#179=ORIENTED_EDGE('',*,*,#142,.T.);
#180=ORIENTED_EDGE('',*,*,#141,.F.);
#181=ORIENTED_EDGE('',*,*,#143,.T.);
#182=ORIENTED_EDGE('',*,*,#144,.T.);
#183=ORIENTED_EDGE('',*,*,#145,.T.);
#184=ORIENTED_EDGE('',*,*,#146,.T.);
#185=ORIENTED_EDGE('',*,*,#147,.T.);
#186=ORIENTED_EDGE('',*,*,#148,.T.);
#187=ORIENTED_EDGE('',*,*,#149,.T.);
#188=ORIENTED_EDGE('',*,*,#150,.T.);
#189=ORIENTED_EDGE('',*,*,#149,.F.);
#190=ORIENTED_EDGE('',*,*,#151,.F.);
#191=ORIENTED_EDGE('',*,*,#152,.F.);
#192=ORIENTED_EDGE('',*,*,#153,.F.);
#193=ORIENTED_EDGE('',*,*,#154,.F.);
#194=ORIENTED_EDGE('',*,*,#155,.F.);
#195=ORIENTED_EDGE('',*,*,#156,.F.);
#196=ORIENTED_EDGE('',*,*,#157,.F.);
#197=ORIENTED_EDGE('',*,*,#142,.F.);
#198=ORIENTED_EDGE('',*,*,#148,.F.);
#199=ORIENTED_EDGE('',*,*,#158,.F.);
#200=ORIENTED_EDGE('',*,*,#159,.F.);
#201=ORIENTED_EDGE('',*,*,#151,.T.);
#202=ORIENTED_EDGE('',*,*,#160,.T.);
#203=ORIENTED_EDGE('',*,*,#161,.T.);
#204=ORIENTED_EDGE('',*,*,#152,.T.);
#205=ORIENTED_EDGE('',*,*,#159,.T.);
#206=ORIENTED_EDGE('',*,*,#162,.T.);
#207=ORIENTED_EDGE('',*,*,#163,.T.);
#208=ORIENTED_EDGE('',*,*,#154,.T.);
#209=ORIENTED_EDGE('',*,*,#164,.T.);
#210=ORIENTED_EDGE('',*,*,#163,.F.);
#211=ORIENTED_EDGE('',*,*,#165,.F.);
#212=ORIENTED_EDGE('',*,*,#166,.F.);
#213=ORIENTED_EDGE('',*,*,#155,.T.);
#214=ORIENTED_EDGE('',*,*,#167,.T.);
#215=ORIENTED_EDGE('',*,*,#168,.T.);
#216=ORIENTED_EDGE('',*,*,#156,.T.);
#217=ORIENTED_EDGE('',*,*,#166,.T.);
#218=ORIENTED_EDGE('',*,*,#150,.F.);
#219=ORIENTED_EDGE('',*,*,#157,.T.);
#220=ORIENTED_EDGE('',*,*,#168,.F.);
#221=ORIENTED_EDGE('',*,*,#169,.F.);
#222=ORIENTED_EDGE('',*,*,#161,.F.);
#223=ORIENTED_EDGE('',*,*,#170,.F.);
#224=ORIENTED_EDGE('',*,*,#164,.F.);
#225=ORIENTED_EDGE('',*,*,#153,.T.);
#226=ORIENTED_EDGE('',*,*,#147,.F.);
#227=ORIENTED_EDGE('',*,*,#169,.T.);
#228=ORIENTED_EDGE('',*,*,#167,.F.);
#229=ORIENTED_EDGE('',*,*,#165,.T.);
#230=ORIENTED_EDGE('',*,*,#162,.F.);
#231=ORIENTED_EDGE('',*,*,#170,.T.);
#232=ORIENTED_EDGE('',*,*,#160,.F.);
#233=ORIENTED_EDGE('',*,*,#158,.T.);
#234=ORIENTED_EDGE('',*,*,#144,.F.);
#235=ORIENTED_EDGE('',*,*,#171,.T.);
#236=ORIENTED_EDGE('',*,*,#145,.F.);
#237=ORIENTED_EDGE('',*,*,#146,.F.);
#238=ORIENTED_EDGE('',*,*,#171,.F.);
#239=ORIENTED_EDGE('',*,*,#143,.F.);
#240=CONICAL_SURFACE('',#278,12.,0.785398163397447);
#241=ADVANCED_FACE('',(#35),#240,.T.);
#242=ADVANCED_FACE('',(#36),#28,.T.);
#243=ADVANCED_FACE('',(#37,#15,#16),#22,.T.);
#244=ADVANCED_FACE('',(#38),#23,.T.);
#245=ADVANCED_FACE('',(#39,#17),#29,.F.);
#246=ADVANCED_FACE('',(#40),#30,.T.);
#247=ADVANCED_FACE('',(#41),#24,.T.);
#248=ADVANCED_FACE('',(#42),#25,.T.);
#249=ADVANCED_FACE('',(#43),#31,.T.);
#250=ADVANCED_FACE('',(#44),#26,.T.);
#251=ADVANCED_FACE('',(#45),#32,.T.);
#252=ADVANCED_FACE('',(#46),#33,.T.);
#253=ADVANCED_FACE('',(#47),#34,.T.);
#254=ADVANCED_FACE('',(#48),#27,.F.);
#255=CLOSED_SHELL('',(#241,#242,#243,#244,#245,#246,#247,#248,#249,#250,
#251,#252,#253,#254));
#256=DERIVED_UNIT_ELEMENT(#259,1.);
#257=DERIVED_UNIT_ELEMENT(#523,-3.);
#258=DIMENSIONAL_EXPONENTS(0.,1.,0.,0.,0.,0.,0.);
#259=(
CONVERSION_BASED_UNIT('gram',#261)
MASS_UNIT()
NAMED_UNIT(#258)
);
#260=(
MASS_UNIT()
NAMED_UNIT(*)
SI_UNIT(.KILO.,.GRAM.)
);
#261=MASS_MEASURE_WITH_UNIT(MASS_MEASURE(0.001),#260);
#262=DERIVED_UNIT((#256,#257));
#263=MEASURE_REPRESENTATION_ITEM('density measure',
POSITIVE_RATIO_MEASURE(7.85),#262);
#264=PROPERTY_DEFINITION_REPRESENTATION(#269,#266);
#265=PROPERTY_DEFINITION_REPRESENTATION(#270,#267);
#266=REPRESENTATION('material name',(#268),#520);
#267=REPRESENTATION('density',(#263),#520);
#268=DESCRIPTIVE_REPRESENTATION_ITEM('Steel, Galvanized',
'Steel, Galvanized');
#269=PROPERTY_DEFINITION('material property','material name',#530);
#270=PROPERTY_DEFINITION('material property','density of part',#530);
#271=DATE_TIME_ROLE('creation_date');
#272=APPLIED_DATE_AND_TIME_ASSIGNMENT(#273,#271,(#530));
#273=DATE_AND_TIME(#274,#275);
#274=CALENDAR_DATE(2023,12,6);
#275=LOCAL_TIME(0,0,0.,#276);
#276=COORDINATED_UNIVERSAL_TIME_OFFSET(0,0,.BEHIND.);
#277=AXIS2_PLACEMENT_3D('',#374,#303,#304);
#278=AXIS2_PLACEMENT_3D('',#375,#305,#306);
#279=AXIS2_PLACEMENT_3D('',#377,#307,#308);
#280=AXIS2_PLACEMENT_3D('',#380,#310,#311);
#281=AXIS2_PLACEMENT_3D('',#381,#312,#313);
#282=AXIS2_PLACEMENT_3D('',#382,#314,#315);
#283=AXIS2_PLACEMENT_3D('',#385,#317,#318);
#284=AXIS2_PLACEMENT_3D('',#466,#319,#320);
#285=AXIS2_PLACEMENT_3D('',#469,#321,#322);
#286=AXIS2_PLACEMENT_3D('',#473,#324,#325);
#287=AXIS2_PLACEMENT_3D('',#475,#327,#328);
#288=AXIS2_PLACEMENT_3D('',#479,#330,#331);
#289=AXIS2_PLACEMENT_3D('',#483,#333,#334);
#290=AXIS2_PLACEMENT_3D('',#487,#336,#337);
#291=AXIS2_PLACEMENT_3D('',#489,#339,#340);
#292=AXIS2_PLACEMENT_3D('',#493,#343,#344);
#293=AXIS2_PLACEMENT_3D('',#495,#345,#346);
#294=AXIS2_PLACEMENT_3D('',#497,#348,#349);
#295=AXIS2_PLACEMENT_3D('',#500,#350,#351);
#296=AXIS2_PLACEMENT_3D('',#503,#354,#355);
#297=AXIS2_PLACEMENT_3D('',#507,#358,#359);
#298=AXIS2_PLACEMENT_3D('',#509,#360,#361);
#299=AXIS2_PLACEMENT_3D('',#511,#363,#364);
#300=AXIS2_PLACEMENT_3D('',#513,#366,#367);
#301=AXIS2_PLACEMENT_3D('',#515,#369,#370);
#302=AXIS2_PLACEMENT_3D('',#516,#371,#372);
#303=DIRECTION('axis',(0.,0.,1.));
#304=DIRECTION('refdir',(1.,0.,0.));
#305=DIRECTION('center_axis',(-1.,0.,0.));
#306=DIRECTION('ref_axis',(9.8130778667736E-17,0.707106781186548,0.707106781186547));
#307=DIRECTION('center_axis',(1.,0.,0.));
#308=DIRECTION('ref_axis',(1.81164514463513E-16,0.707106781186548,0.707106781186547));
#309=DIRECTION('',(0.707106781186548,0.5,0.499999999999999));
#310=DIRECTION('center_axis',(-1.,0.,0.));
#311=DIRECTION('ref_axis',(0.,0.707106781186548,0.707106781186547));
#312=DIRECTION('center_axis',(1.,0.,0.));
#313=DIRECTION('ref_axis',(0.,0.,-1.));
#314=DIRECTION('center_axis',(1.,0.,-2.57104279386878E-16));
#315=DIRECTION('ref_axis',(1.81164514463512E-16,0.707106781186548,0.707106781186547));
#316=DIRECTION('',(-1.,0.,2.57104279386878E-16));
#317=DIRECTION('center_axis',(1.,0.,-1.70803542250024E-16));
#318=DIRECTION('ref_axis',(1.81164514463512E-16,-0.707106781186548,0.707106781186547));
#319=DIRECTION('center_axis',(-1.,0.,0.));
#320=DIRECTION('ref_axis',(0.,-0.707106781186547,0.707106781186548));
#321=DIRECTION('center_axis',(1.,0.,0.));
#322=DIRECTION('ref_axis',(0.,-0.707106781186547,0.707106781186548));
#323=DIRECTION('',(1.,0.,0.));
#324=DIRECTION('center_axis',(-1.,0.,1.70803542250024E-16));
#325=DIRECTION('ref_axis',(0.,-0.707106781186547,0.707106781186548));
#326=DIRECTION('',(-1.,0.,0.));
#327=DIRECTION('center_axis',(-1.,0.,1.70803542250024E-16));
#328=DIRECTION('ref_axis',(1.70803542250024E-16,0.,1.));
#329=DIRECTION('',(1.70803542250024E-16,1.48029736616688E-16,1.));
#330=DIRECTION('center_axis',(-1.,0.,1.70803542250024E-16));
#331=DIRECTION('ref_axis',(0.,-0.707106781186548,-0.707106781186548));
#332=DIRECTION('',(2.52840033724683E-32,-1.,1.48029736616688E-16));
#333=DIRECTION('center_axis',(-1.,0.,1.70803542250024E-16));
#334=DIRECTION('ref_axis',(0.,0.707106781186546,-0.707106781186549));
#335=DIRECTION('',(-1.70803542250024E-16,0.,-1.));
#336=DIRECTION('center_axis',(-1.,0.,1.70803542250024E-16));
#337=DIRECTION('ref_axis',(0.,0.707106781186549,0.707106781186546));
#338=DIRECTION('',(-2.52840033724683E-32,1.,-1.48029736616688E-16));
#339=DIRECTION('center_axis',(0.,-1.,1.48029736616688E-16));
#340=DIRECTION('ref_axis',(1.70803542250024E-16,1.48029736616688E-16,1.));
#341=DIRECTION('',(1.70803542250024E-16,1.48029736616688E-16,1.));
#342=DIRECTION('',(-1.,0.,0.));
#343=DIRECTION('center_axis',(-1.,0.,0.));
#344=DIRECTION('ref_axis',(0.,-0.707106781186548,-0.707106781186548));
#345=DIRECTION('center_axis',(1.,0.,0.));
#346=DIRECTION('ref_axis',(0.,-0.707106781186548,-0.707106781186548));
#347=DIRECTION('',(1.,0.,0.));
#348=DIRECTION('center_axis',(-1.,0.,0.));
#349=DIRECTION('ref_axis',(0.,0.707106781186546,-0.707106781186549));
#350=DIRECTION('center_axis',(1.,0.,0.));
#351=DIRECTION('ref_axis',(0.,0.707106781186546,-0.707106781186549));
#352=DIRECTION('',(1.,0.,0.));
#353=DIRECTION('',(-1.,0.,0.));
#354=DIRECTION('center_axis',(0.,1.,0.));
#355=DIRECTION('ref_axis',(-1.70803542250024E-16,0.,-1.));
#356=DIRECTION('',(-1.70803542250024E-16,0.,-1.));
#357=DIRECTION('',(-1.,0.,0.));
#358=DIRECTION('center_axis',(-1.,0.,0.));
#359=DIRECTION('ref_axis',(0.,0.707106781186549,0.707106781186546));
#360=DIRECTION('center_axis',(1.,0.,0.));
#361=DIRECTION('ref_axis',(0.,0.707106781186549,0.707106781186546));
#362=DIRECTION('',(1.,0.,0.));
#363=DIRECTION('center_axis',(0.,1.48029736616688E-16,1.));
#364=DIRECTION('ref_axis',(-2.52840033724683E-32,1.,-1.48029736616688E-16));
#365=DIRECTION('',(-2.52840033724683E-32,1.,-1.48029736616688E-16));
#366=DIRECTION('center_axis',(0.,-1.48029736616688E-16,-1.));
#367=DIRECTION('ref_axis',(2.52840033724683E-32,-1.,1.48029736616688E-16));
#368=DIRECTION('',(2.52840033724683E-32,-1.,1.48029736616688E-16));
#369=DIRECTION('center_axis',(-1.,0.,0.));
#370=DIRECTION('ref_axis',(0.,0.,1.));
#371=DIRECTION('center_axis',(0.,1.,0.));
#372=DIRECTION('ref_axis',(1.,0.,0.));
#373=DIRECTION('',(0.,-1.,0.));
#374=CARTESIAN_POINT('',(0.,0.,0.));
#375=CARTESIAN_POINT('Origin',(68.1790876243398,13.,-2.88343845000171));
#376=CARTESIAN_POINT('',(67.1790876243398,3.80761184457488,-12.0758266054268));
#377=CARTESIAN_POINT('Origin',(67.1790876243398,13.,-2.88343845000171));
#378=CARTESIAN_POINT('',(69.1790876243398,5.22182540694797,-10.6616130430537));
#379=CARTESIAN_POINT('',(68.1790876243398,4.51471862576143,-11.3687198242403));
#380=CARTESIAN_POINT('Origin',(69.1790876243398,13.,-2.88343845000171));
#381=CARTESIAN_POINT('Origin',(69.1790876243398,0.,10.1165615499983));
#382=CARTESIAN_POINT('Origin',(-2.07091237566017,13.,-2.8834384500017));
#383=CARTESIAN_POINT('',(-25.8209123756602,3.80761184457488,-12.0758266054268));
#384=CARTESIAN_POINT('',(-2.07091237566018,3.80761184457488,-12.0758266054268));
#385=CARTESIAN_POINT('Origin',(-25.8209123756602,13.,-2.88343845000169));
#386=CARTESIAN_POINT('',(63.1790876243398,26.,-2.88343845000171));
#387=CARTESIAN_POINT('',(57.1790876243398,26.,-2.88343845000171));
#388=CARTESIAN_POINT('Ctrl Pts',(63.1790876243398,26.,-2.88343845000171));
#389=CARTESIAN_POINT('Ctrl Pts',(63.1790876243398,26.,-2.50529925469017));
#390=CARTESIAN_POINT('Ctrl Pts',(63.1032381732388,25.9818424379982,-2.10287439890077));
#391=CARTESIAN_POINT('Ctrl Pts',(62.7966486858291,25.9162379459359,-1.36412588978449));
#392=CARTESIAN_POINT('Ctrl Pts',(62.5659826851045,25.8696801627266,-1.02769282364707));
#393=CARTESIAN_POINT('Ctrl Pts',(62.0348065307501,25.7818260946801,-0.496516669292679));
#394=CARTESIAN_POINT('Ctrl Pts',(61.6983846827419,25.7347146971841,-0.265871544304013));
#395=CARTESIAN_POINT('Ctrl Pts',(60.959675626913,25.6678338224763,0.0407027479725516));
#396=CARTESIAN_POINT('Ctrl Pts',(60.557264864908,25.6491106406735,0.11656154999829));
#397=CARTESIAN_POINT('Ctrl Pts',(60.1790876243398,25.6491106406735,0.116561549998289));
#398=CARTESIAN_POINT('Ctrl Pts',(59.8009103837717,25.6491106406735,0.116561549998288));
#399=CARTESIAN_POINT('Ctrl Pts',(59.3984996217666,25.6678338224763,0.0407027479725463));
#400=CARTESIAN_POINT('Ctrl Pts',(58.6597905659378,25.7347146971841,-0.26587154430402));
#401=CARTESIAN_POINT('Ctrl Pts',(58.3233687179296,25.7818260946801,-0.496516669292686));
#402=CARTESIAN_POINT('Ctrl Pts',(57.7921925635752,25.8696801627266,-1.02769282364708));
#403=CARTESIAN_POINT('Ctrl Pts',(57.5615265628506,25.9162379459359,-1.3641258897845));
#404=CARTESIAN_POINT('Ctrl Pts',(57.2549370754409,25.9818424379982,-2.10287439890078));
#405=CARTESIAN_POINT('Ctrl Pts',(57.1790876243398,26.,-2.50529925469017));
#406=CARTESIAN_POINT('Ctrl Pts',(57.1790876243398,26.,-2.88343845000171));
#407=CARTESIAN_POINT('Ctrl Pts',(57.1790876243398,26.,-2.88343845000171));
#408=CARTESIAN_POINT('Ctrl Pts',(57.1790876243398,26.,-3.26157764531325));
#409=CARTESIAN_POINT('Ctrl Pts',(57.2549370754409,25.9818424379982,-3.66400250110265));
#410=CARTESIAN_POINT('Ctrl Pts',(57.5615265628506,25.9162379459359,-4.40275101021893));
#411=CARTESIAN_POINT('Ctrl Pts',(57.7921925635752,25.8696801627266,-4.73918407635635));
#412=CARTESIAN_POINT('Ctrl Pts',(58.3233687179296,25.7818260946801,-5.27036023071074));
#413=CARTESIAN_POINT('Ctrl Pts',(58.6597905659378,25.7347146971841,-5.50100535569941));
#414=CARTESIAN_POINT('Ctrl Pts',(59.3984996217666,25.6678338224763,-5.80757964797598));
#415=CARTESIAN_POINT('Ctrl Pts',(59.8009103837717,25.6491106406735,-5.88343845000171));
#416=CARTESIAN_POINT('Ctrl Pts',(60.1790876243398,25.6491106406735,-5.88343845000171));
#417=CARTESIAN_POINT('Ctrl Pts',(60.557264864908,25.6491106406735,-5.88343845000171));
#418=CARTESIAN_POINT('Ctrl Pts',(60.959675626913,25.6678338224763,-5.80757964797597));
#419=CARTESIAN_POINT('Ctrl Pts',(61.6983846827419,25.7347146971841,-5.50100535569941));
#420=CARTESIAN_POINT('Ctrl Pts',(62.0348065307501,25.7818260946801,-5.27036023071074));
#421=CARTESIAN_POINT('Ctrl Pts',(62.5659826851045,25.8696801627266,-4.73918407635635));
#422=CARTESIAN_POINT('Ctrl Pts',(62.7966486858291,25.9162379459359,-4.40275101021893));
#423=CARTESIAN_POINT('Ctrl Pts',(63.1032381732388,25.9818424379982,-3.66400250110265));
#424=CARTESIAN_POINT('Ctrl Pts',(63.1790876243398,26.,-3.26157764531325));
#425=CARTESIAN_POINT('Ctrl Pts',(63.1790876243398,26.,-2.88343845000171));
#426=CARTESIAN_POINT('',(63.1790876243398,0.,-2.8834384500017));
#427=CARTESIAN_POINT('',(57.1790876243398,0.,-2.88343845000171));
#428=CARTESIAN_POINT('Ctrl Pts',(63.1790876243398,8.78203759713259E-16,
-2.88343845000171));
#429=CARTESIAN_POINT('Ctrl Pts',(63.1790876243398,1.16945308075975E-15,
-3.26157764531325));
#430=CARTESIAN_POINT('Ctrl Pts',(63.1032381732388,0.0181575620017741,-3.66400250110265));
#431=CARTESIAN_POINT('Ctrl Pts',(62.7966486858291,0.0837620540641366,-4.40275101021893));
#432=CARTESIAN_POINT('Ctrl Pts',(62.5659826851045,0.130319837273423,-4.73918407635635));
#433=CARTESIAN_POINT('Ctrl Pts',(62.0348065307501,0.218173905319916,-5.27036023071074));
#434=CARTESIAN_POINT('Ctrl Pts',(61.6983846827419,0.265285302815934,-5.50100535569941));
#435=CARTESIAN_POINT('Ctrl Pts',(60.959675626913,0.332166177523688,-5.80757964797597));
#436=CARTESIAN_POINT('Ctrl Pts',(60.557264864908,0.350889359326485,-5.88343845000171));
#437=CARTESIAN_POINT('Ctrl Pts',(60.1790876243398,0.350889359326485,-5.88343845000171));
#438=CARTESIAN_POINT('Ctrl Pts',(59.8009103837717,0.350889359326485,-5.88343845000171));
#439=CARTESIAN_POINT('Ctrl Pts',(59.3984996217666,0.332166177523688,-5.80757964797598));
#440=CARTESIAN_POINT('Ctrl Pts',(58.6597905659378,0.265285302815935,-5.50100535569941));
#441=CARTESIAN_POINT('Ctrl Pts',(58.3233687179296,0.218173905319915,-5.27036023071074));
#442=CARTESIAN_POINT('Ctrl Pts',(57.7921925635752,0.130319837273423,-4.73918407635635));
#443=CARTESIAN_POINT('Ctrl Pts',(57.5615265628506,0.0837620540641366,-4.40275101021893));
#444=CARTESIAN_POINT('Ctrl Pts',(57.2549370754409,0.0181575620017744,-3.66400250110265));
#445=CARTESIAN_POINT('Ctrl Pts',(57.1790876243398,1.4162848128423E-15,-3.26157764531325));
#446=CARTESIAN_POINT('Ctrl Pts',(57.1790876243398,1.06468653338077E-15,
-2.88343845000171));
#447=CARTESIAN_POINT('Ctrl Pts',(57.1790876243398,7.24247051220317E-16,
-2.88343845000171));
#448=CARTESIAN_POINT('Ctrl Pts',(57.1790876243398,7.63605067577951E-16,
-2.50529925469017));
#449=CARTESIAN_POINT('Ctrl Pts',(57.2549370754409,0.0181575620017746,-2.10287439890078));
#450=CARTESIAN_POINT('Ctrl Pts',(57.5615265628506,0.0837620540641362,-1.3641258897845));
#451=CARTESIAN_POINT('Ctrl Pts',(57.7921925635752,0.130319837273421,-1.02769282364708));
#452=CARTESIAN_POINT('Ctrl Pts',(58.3233687179296,0.218173905319913,-0.496516669292686));
#453=CARTESIAN_POINT('Ctrl Pts',(58.6597905659377,0.26528530281593,-0.265871544304029));
#454=CARTESIAN_POINT('Ctrl Pts',(59.3984996217666,0.332166177523684,0.040702747972542));
#455=CARTESIAN_POINT('Ctrl Pts',(59.8009103837717,0.350889359326483,0.116561549998288));
#456=CARTESIAN_POINT('Ctrl Pts',(60.1790876243398,0.350889359326483,0.116561549998289));
#457=CARTESIAN_POINT('Ctrl Pts',(60.557264864908,0.350889359326483,0.11656154999829));
#458=CARTESIAN_POINT('Ctrl Pts',(60.959675626913,0.332166177523685,0.0407027479725514));
#459=CARTESIAN_POINT('Ctrl Pts',(61.6983846827419,0.265285302815932,-0.265871544304013));
#460=CARTESIAN_POINT('Ctrl Pts',(62.0348065307501,0.218173905319915,-0.496516669292679));
#461=CARTESIAN_POINT('Ctrl Pts',(62.5659826851045,0.130319837273423,-1.02769282364707));
#462=CARTESIAN_POINT('Ctrl Pts',(62.7966486858291,0.0837620540641365,-1.36412588978449));
#463=CARTESIAN_POINT('Ctrl Pts',(63.1032381732388,0.0181575620017746,-2.10287439890077));
#464=CARTESIAN_POINT('Ctrl Pts',(63.1790876243398,8.6961924250143E-16,-2.50529925469017));
#465=CARTESIAN_POINT('Ctrl Pts',(63.1790876243398,8.06646416329215E-16,
-2.88343845000171));
#466=CARTESIAN_POINT('Origin',(-25.8209123756602,-1.,11.1165615499983));
#467=CARTESIAN_POINT('',(-30.8209123756602,-1.,12.1165615499983));
#468=CARTESIAN_POINT('',(-30.8209123756602,-2.,11.1165615499983));
#469=CARTESIAN_POINT('Origin',(-30.8209123756602,-1.,11.1165615499983));
#470=CARTESIAN_POINT('',(-25.8209123756602,-2.,11.1165615499983));
#471=CARTESIAN_POINT('',(-25.8209123756602,-2.,11.1165615499983));
#472=CARTESIAN_POINT('',(-25.8209123756602,-1.,12.1165615499983));
#473=CARTESIAN_POINT('Origin',(-25.8209123756602,-1.,11.1165615499983));
#474=CARTESIAN_POINT('',(-25.8209123756602,-1.,12.1165615499983));
#475=CARTESIAN_POINT('Origin',(-25.8209123756602,13.,-2.88343845000169));
#476=CARTESIAN_POINT('',(-25.8209123756602,-2.,-16.8834384500017));
#477=CARTESIAN_POINT('',(-25.8209123756602,-2.,-17.8834384500017));
#478=CARTESIAN_POINT('',(-25.8209123756602,-1.00000000000001,-17.8834384500017));
#479=CARTESIAN_POINT('Origin',(-25.8209123756602,-1.,-16.8834384500017));
#480=CARTESIAN_POINT('',(-25.8209123756602,27.,-17.8834384500017));
#481=CARTESIAN_POINT('',(-25.8209123756602,28.,-17.8834384500017));
#482=CARTESIAN_POINT('',(-25.8209123756602,28.,-16.8834384500017));
#483=CARTESIAN_POINT('Origin',(-25.8209123756602,27.,-16.8834384500017));
#484=CARTESIAN_POINT('',(-25.8209123756602,28.,11.1165615499983));
#485=CARTESIAN_POINT('',(-25.8209123756602,28.,12.1165615499983));
#486=CARTESIAN_POINT('',(-25.8209123756602,27.,12.1165615499983));
#487=CARTESIAN_POINT('Origin',(-25.8209123756602,27.,11.1165615499983));
#488=CARTESIAN_POINT('',(-25.8209123756602,-2.,12.1165615499983));
#489=CARTESIAN_POINT('Origin',(-25.8209123756602,-2.,-17.8834384500017));
#490=CARTESIAN_POINT('',(-30.8209123756602,-2.,-16.8834384500017));
#491=CARTESIAN_POINT('',(-30.8209123756602,-2.,-17.8834384500017));
#492=CARTESIAN_POINT('',(-25.8209123756602,-2.,-16.8834384500017));
#493=CARTESIAN_POINT('Origin',(-25.8209123756602,-1.,-16.8834384500017));
#494=CARTESIAN_POINT('',(-30.8209123756602,-1.00000000000001,-17.8834384500017));
#495=CARTESIAN_POINT('Origin',(-30.8209123756602,-1.,-16.8834384500017));
#496=CARTESIAN_POINT('',(-25.8209123756602,-1.,-17.8834384500017));
#497=CARTESIAN_POINT('Origin',(-25.8209123756602,27.,-16.8834384500017));
#498=CARTESIAN_POINT('',(-30.8209123756602,27.,-17.8834384500017));
#499=CARTESIAN_POINT('',(-30.8209123756602,28.,-16.8834384500017));
#500=CARTESIAN_POINT('Origin',(-30.8209123756602,27.,-16.8834384500017));
#501=CARTESIAN_POINT('',(-25.8209123756602,28.,-16.8834384500017));
#502=CARTESIAN_POINT('',(-25.8209123756602,27.,-17.8834384500017));
#503=CARTESIAN_POINT('Origin',(-25.8209123756602,28.,12.1165615499983));
#504=CARTESIAN_POINT('',(-30.8209123756602,28.,11.1165615499983));
#505=CARTESIAN_POINT('',(-30.8209123756602,28.,12.1165615499983));
#506=CARTESIAN_POINT('',(-25.8209123756602,28.,11.1165615499983));
#507=CARTESIAN_POINT('Origin',(-25.8209123756602,27.,11.1165615499983));
#508=CARTESIAN_POINT('',(-30.8209123756602,27.,12.1165615499983));
#509=CARTESIAN_POINT('Origin',(-30.8209123756602,27.,11.1165615499983));
#510=CARTESIAN_POINT('',(-25.8209123756602,27.,12.1165615499983));
#511=CARTESIAN_POINT('Origin',(-25.8209123756602,-2.,12.1165615499983));
#512=CARTESIAN_POINT('',(-30.8209123756602,-2.,12.1165615499983));
#513=CARTESIAN_POINT('Origin',(-25.8209123756602,28.,-17.8834384500017));
#514=CARTESIAN_POINT('',(-30.8209123756602,28.,-17.8834384500017));
#515=CARTESIAN_POINT('Origin',(-30.8209123756602,13.,-2.88343845000169));
#516=CARTESIAN_POINT('Origin',(60.1790876243398,-75.8675610780979,-2.88343845000171));
#517=CARTESIAN_POINT('',(57.1790876243398,-75.8675610780979,-2.88343845000171));
#518=UNCERTAINTY_MEASURE_WITH_UNIT(LENGTH_MEASURE(0.01),#522,
'DISTANCE_ACCURACY_VALUE',
'Maximum model space distance between geometric entities at asserted c
onnectivities');
#519=UNCERTAINTY_MEASURE_WITH_UNIT(LENGTH_MEASURE(0.01),#522,
'DISTANCE_ACCURACY_VALUE',
'Maximum model space distance between geometric entities at asserted c
onnectivities');
#520=(
GEOMETRIC_REPRESENTATION_CONTEXT(3)
GLOBAL_UNCERTAINTY_ASSIGNED_CONTEXT((#518))
GLOBAL_UNIT_ASSIGNED_CONTEXT((#522,#524,#525))
REPRESENTATION_CONTEXT('','3D')
);
#521=(
GEOMETRIC_REPRESENTATION_CONTEXT(3)
GLOBAL_UNCERTAINTY_ASSIGNED_CONTEXT((#519))
GLOBAL_UNIT_ASSIGNED_CONTEXT((#522,#524,#525))
REPRESENTATION_CONTEXT('','3D')
);
#522=(
LENGTH_UNIT()
NAMED_UNIT(*)
SI_UNIT(.MILLI.,.METRE.)
);
#523=(
LENGTH_UNIT()
NAMED_UNIT(*)
SI_UNIT(.CENTI.,.METRE.)
);
#524=(
NAMED_UNIT(*)
PLANE_ANGLE_UNIT()
SI_UNIT($,.RADIAN.)
);
#525=(
NAMED_UNIT(*)
SI_UNIT($,.STERADIAN.)
SOLID_ANGLE_UNIT()
);
#526=SHAPE_DEFINITION_REPRESENTATION(#527,#528);
#527=PRODUCT_DEFINITION_SHAPE('',$,#530);
#528=SHAPE_REPRESENTATION('',(#277),#520);
#529=PRODUCT_DEFINITION_CONTEXT('part definition',#534,'design');
#530=PRODUCT_DEFINITION('A19723','A19723',#531,#529);
#531=PRODUCT_DEFINITION_FORMATION('',$,#536);
#532=PRODUCT_RELATED_PRODUCT_CATEGORY('A19723','A19723',(#536));
#533=APPLICATION_PROTOCOL_DEFINITION('international standard',
'automotive_design',2009,#534);
#534=APPLICATION_CONTEXT(
'Core Data for Automotive Mechanical Design Process');
#535=PRODUCT_CONTEXT('part definition',#534,'mechanical');
#536=PRODUCT('A19723','A19723',$,(#535));
#537=PRESENTATION_STYLE_ASSIGNMENT((#538));
#538=SURFACE_STYLE_USAGE(.BOTH.,#541);
#539=SURFACE_STYLE_RENDERING_WITH_PROPERTIES($,#545,(#540));
#540=SURFACE_STYLE_TRANSPARENT(0.);
#541=SURFACE_SIDE_STYLE('',(#542,#539));
#542=SURFACE_STYLE_FILL_AREA(#543);
#543=FILL_AREA_STYLE('',(#544));
#544=FILL_AREA_STYLE_COLOUR('',#545);
#545=COLOUR_RGB('',0.745098039215686,0.737254901960784,0.729411764705882);
ENDSEC;
END-ISO-10303-21;
