ISO-10303-21;
HEADER;
/* Generated by software containing ST-Developer
 * from STEP Tools, Inc. (www.steptools.com) 
 */

FILE_DESCRIPTION(
/* description */ (''),
/* implementation_level */ '2;1');

FILE_NAME(
/* name */ 'A12421.stp',
/* time_stamp */ '2023-06-21T13:24:20+02:00',
/* author */ ('msn'),
/* organization */ (''),
/* preprocessor_version */ 'ST-DEVELOPER v19.2',
/* originating_system */ 'Autodesk Inventor 2024',
/* authorisation */ '');

FILE_SCHEMA (('AUTOMOTIVE_DESIGN { 1 0 10303 214 3 1 1 }'));
ENDSEC;

DATA;
#10=MECHANICAL_DESIGN_GEOMETRIC_PRESENTATION_REPRESENTATION('',(#13),#369);
#11=SHAPE_REPRESENTATION_RELATIONSHIP('SRR','None',#376,#12);
#12=ADVANCED_BREP_SHAPE_REPRESENTATION('',(#14),#368);
#13=STYLED_ITEM('',(#385),#14);
#14=MANIFOLD_SOLID_BREP('Solid2',#161);
#15=B_SPLINE_CURVE_WITH_KNOTS('',3,(#282,#283,#284,#285,#286,#287,#288,
#289,#290,#291),.UNSPECIFIED.,.F.,.F.,(4,2,2,2,4),(2.76265929216894,2.99261992377667,
3.2225805553844,3.45306313913817,3.68354572289193),.UNSPECIFIED.);
#16=B_SPLINE_CURVE_WITH_KNOTS('',3,(#293,#294,#295,#296,#297,#298,#299,
#300,#301,#302),.UNSPECIFIED.,.F.,.F.,(4,2,2,2,4),(3.68354572289193,3.91402830664569,
4.14451089039945,4.37447152200718,4.60443215361491),.UNSPECIFIED.);
#17=B_SPLINE_CURVE_WITH_KNOTS('',3,(#303,#304,#305,#306,#307,#308,#309,
#310,#311,#312,#313,#314,#315,#316,#317,#318,#319,#320,#321),
 .UNSPECIFIED.,.F.,.F.,(4,2,2,2,3,2,2,2,4),(2.76265929216894,2.99261992377667,
3.2225805553844,3.45306313913816,3.68354572289192,3.91402830664568,4.14451089039944,
4.37447152200717,4.6044321536149),.UNSPECIFIED.);
#18=B_SPLINE_CURVE_WITH_KNOTS('',3,(#324,#325,#326,#327,#328,#329,#330,
#331,#332,#333,#334,#335,#336,#337,#338,#339,#340,#341,#342),
 .UNSPECIFIED.,.F.,.F.,(4,2,2,2,3,2,2,2,4),(2.76265929216894,2.99261992377667,
3.2225805553844,3.45306313913816,3.68354572289192,3.91402830664568,4.14451089039944,
4.37447152200717,4.6044321536149),.UNSPECIFIED.);
#19=B_SPLINE_CURVE_WITH_KNOTS('',3,(#344,#345,#346,#347,#348,#349,#350,
#351,#352,#353),.UNSPECIFIED.,.F.,.F.,(4,2,2,2,4),(2.76265929216895,2.99261992377667,
3.2225805553844,3.45306313913817,3.68354572289193),.UNSPECIFIED.);
#20=B_SPLINE_CURVE_WITH_KNOTS('',3,(#354,#355,#356,#357,#358,#359,#360,
#361,#362,#363),.UNSPECIFIED.,.F.,.F.,(4,2,2,2,4),(3.68354572289193,3.91402830664569,
4.14451089039945,4.37447152200718,4.60443215361491),.UNSPECIFIED.);
#21=CONICAL_SURFACE('',#197,11.,0.523598775598297);
#22=FACE_BOUND('',#54,.T.);
#23=FACE_BOUND('',#60,.T.);
#24=FACE_BOUND('',#61,.T.);
#25=PLANE('',#192);
#26=PLANE('',#196);
#27=PLANE('',#200);
#28=LINE('',#261,#33);
#29=LINE('',#269,#34);
#30=LINE('',#275,#35);
#31=LINE('',#279,#36);
#32=LINE('',#365,#37);
#33=VECTOR('',#219,15.5);
#34=VECTOR('',#230,15.5);
#35=VECTOR('',#237,11.);
#36=VECTOR('',#244,12.5);
#37=VECTOR('',#247,6.);
#38=CYLINDRICAL_SURFACE('',#190,15.5);
#39=CYLINDRICAL_SURFACE('',#194,15.5);
#40=CYLINDRICAL_SURFACE('',#201,12.5);
#41=CYLINDRICAL_SURFACE('',#202,6.);
#42=FACE_OUTER_BOUND('',#51,.T.);
#43=FACE_OUTER_BOUND('',#52,.T.);
#44=FACE_OUTER_BOUND('',#53,.T.);
#45=FACE_OUTER_BOUND('',#55,.T.);
#46=FACE_OUTER_BOUND('',#56,.T.);
#47=FACE_OUTER_BOUND('',#57,.T.);
#48=FACE_OUTER_BOUND('',#58,.T.);
#49=FACE_OUTER_BOUND('',#59,.T.);
#50=FACE_OUTER_BOUND('',#62,.T.);
#51=EDGE_LOOP('',(#109,#110,#111,#112,#113,#114));
#52=EDGE_LOOP('',(#115,#116,#117,#118,#119));
#53=EDGE_LOOP('',(#120));
#54=EDGE_LOOP('',(#121));
#55=EDGE_LOOP('',(#122,#123,#124,#125,#126));
#56=EDGE_LOOP('',(#127));
#57=EDGE_LOOP('',(#128,#129,#130,#131));
#58=EDGE_LOOP('',(#132));
#59=EDGE_LOOP('',(#133,#134,#135,#136));
#60=EDGE_LOOP('',(#137,#138,#139));
#61=EDGE_LOOP('',(#140,#141,#142));
#62=EDGE_LOOP('',(#143,#144,#145,#146,#147,#148,#149,#150));
#63=CIRCLE('',#185,15.5);
#64=CIRCLE('',#186,15.5);
#65=CIRCLE('',#187,4.);
#66=CIRCLE('',#188,15.5);
#67=CIRCLE('',#189,15.5);
#68=CIRCLE('',#191,15.5);
#69=CIRCLE('',#193,12.5);
#70=CIRCLE('',#195,15.5);
#71=CIRCLE('',#198,12.5);
#72=CIRCLE('',#199,9.5);
#73=VERTEX_POINT('',#250);
#74=VERTEX_POINT('',#251);
#75=VERTEX_POINT('',#254);
#76=VERTEX_POINT('',#256);
#77=VERTEX_POINT('',#260);
#78=VERTEX_POINT('',#264);
#79=VERTEX_POINT('',#267);
#80=VERTEX_POINT('',#272);
#81=VERTEX_POINT('',#274);
#82=VERTEX_POINT('',#280);
#83=VERTEX_POINT('',#281);
#84=VERTEX_POINT('',#292);
#85=VERTEX_POINT('',#322);
#86=VERTEX_POINT('',#323);
#87=VERTEX_POINT('',#343);
#88=EDGE_CURVE('',#73,#74,#63,.T.);
#89=EDGE_CURVE('',#74,#73,#64,.T.);
#90=EDGE_CURVE('',#74,#75,#65,.T.);
#91=EDGE_CURVE('',#76,#75,#66,.T.);
#92=EDGE_CURVE('',#75,#76,#67,.T.);
#93=EDGE_CURVE('',#73,#77,#28,.T.);
#94=EDGE_CURVE('',#77,#77,#68,.T.);
#95=EDGE_CURVE('',#78,#78,#69,.T.);
#96=EDGE_CURVE('',#79,#79,#70,.T.);
#97=EDGE_CURVE('',#79,#76,#29,.T.);
#98=EDGE_CURVE('',#80,#80,#71,.T.);
#99=EDGE_CURVE('',#80,#81,#30,.T.);
#100=EDGE_CURVE('',#81,#81,#72,.T.);
#101=EDGE_CURVE('',#80,#78,#31,.T.);
#102=EDGE_CURVE('',#82,#83,#15,.T.);
#103=EDGE_CURVE('',#83,#84,#16,.T.);
#104=EDGE_CURVE('',#84,#82,#17,.T.);
#105=EDGE_CURVE('',#85,#86,#18,.T.);
#106=EDGE_CURVE('',#86,#87,#19,.T.);
#107=EDGE_CURVE('',#87,#85,#20,.T.);
#108=EDGE_CURVE('',#83,#87,#32,.T.);
#109=ORIENTED_EDGE('',*,*,#88,.F.);
#110=ORIENTED_EDGE('',*,*,#89,.F.);
#111=ORIENTED_EDGE('',*,*,#90,.T.);
#112=ORIENTED_EDGE('',*,*,#91,.F.);
#113=ORIENTED_EDGE('',*,*,#92,.F.);
#114=ORIENTED_EDGE('',*,*,#90,.F.);
#115=ORIENTED_EDGE('',*,*,#88,.T.);
#116=ORIENTED_EDGE('',*,*,#89,.T.);
#117=ORIENTED_EDGE('',*,*,#93,.T.);
#118=ORIENTED_EDGE('',*,*,#94,.T.);
#119=ORIENTED_EDGE('',*,*,#93,.F.);
#120=ORIENTED_EDGE('',*,*,#94,.F.);
#121=ORIENTED_EDGE('',*,*,#95,.F.);
#122=ORIENTED_EDGE('',*,*,#96,.F.);
#123=ORIENTED_EDGE('',*,*,#97,.T.);
#124=ORIENTED_EDGE('',*,*,#91,.T.);
#125=ORIENTED_EDGE('',*,*,#92,.T.);
#126=ORIENTED_EDGE('',*,*,#97,.F.);
#127=ORIENTED_EDGE('',*,*,#96,.T.);
#128=ORIENTED_EDGE('',*,*,#98,.T.);
#129=ORIENTED_EDGE('',*,*,#99,.T.);
#130=ORIENTED_EDGE('',*,*,#100,.T.);
#131=ORIENTED_EDGE('',*,*,#99,.F.);
#132=ORIENTED_EDGE('',*,*,#100,.F.);
#133=ORIENTED_EDGE('',*,*,#98,.F.);
#134=ORIENTED_EDGE('',*,*,#101,.T.);
#135=ORIENTED_EDGE('',*,*,#95,.T.);
#136=ORIENTED_EDGE('',*,*,#101,.F.);
#137=ORIENTED_EDGE('',*,*,#102,.T.);
#138=ORIENTED_EDGE('',*,*,#103,.T.);
#139=ORIENTED_EDGE('',*,*,#104,.T.);
#140=ORIENTED_EDGE('',*,*,#105,.T.);
#141=ORIENTED_EDGE('',*,*,#106,.T.);
#142=ORIENTED_EDGE('',*,*,#107,.T.);
#143=ORIENTED_EDGE('',*,*,#104,.F.);
#144=ORIENTED_EDGE('',*,*,#103,.F.);
#145=ORIENTED_EDGE('',*,*,#108,.T.);
#146=ORIENTED_EDGE('',*,*,#106,.F.);
#147=ORIENTED_EDGE('',*,*,#105,.F.);
#148=ORIENTED_EDGE('',*,*,#107,.F.);
#149=ORIENTED_EDGE('',*,*,#108,.F.);
#150=ORIENTED_EDGE('',*,*,#102,.F.);
#151=TOROIDAL_SURFACE('',#184,15.5,4.);
#152=ADVANCED_FACE('',(#42),#151,.F.);
#153=ADVANCED_FACE('',(#43),#38,.T.);
#154=ADVANCED_FACE('',(#44,#22),#25,.F.);
#155=ADVANCED_FACE('',(#45),#39,.T.);
#156=ADVANCED_FACE('',(#46),#26,.T.);
#157=ADVANCED_FACE('',(#47),#21,.T.);
#158=ADVANCED_FACE('',(#48),#27,.T.);
#159=ADVANCED_FACE('',(#49,#23,#24),#40,.T.);
#160=ADVANCED_FACE('',(#50),#41,.F.);
#161=CLOSED_SHELL('',(#152,#153,#154,#155,#156,#157,#158,#159,#160));
#162=DERIVED_UNIT_ELEMENT(#165,1.);
#163=DERIVED_UNIT_ELEMENT(#371,-3.);
#164=DIMENSIONAL_EXPONENTS(0.,1.,0.,0.,0.,0.,0.);
#165=(
CONVERSION_BASED_UNIT('gram',#167)
MASS_UNIT()
NAMED_UNIT(#164)
);
#166=(
MASS_UNIT()
NAMED_UNIT(*)
SI_UNIT(.KILO.,.GRAM.)
);
#167=MASS_MEASURE_WITH_UNIT(MASS_MEASURE(0.001),#166);
#168=DERIVED_UNIT((#162,#163));
#169=MEASURE_REPRESENTATION_ITEM('density measure',
POSITIVE_RATIO_MEASURE(7.85),#168);
#170=PROPERTY_DEFINITION_REPRESENTATION(#175,#172);
#171=PROPERTY_DEFINITION_REPRESENTATION(#176,#173);
#172=REPRESENTATION('material name',(#174),#368);
#173=REPRESENTATION('density',(#169),#368);
#174=DESCRIPTIVE_REPRESENTATION_ITEM('Steel, Galvanized',
'Steel, Galvanized');
#175=PROPERTY_DEFINITION('material property','material name',#378);
#176=PROPERTY_DEFINITION('material property','density of part',#378);
#177=DATE_TIME_ROLE('creation_date');
#178=APPLIED_DATE_AND_TIME_ASSIGNMENT(#179,#177,(#378));
#179=DATE_AND_TIME(#180,#181);
#180=CALENDAR_DATE(2023,12,6);
#181=LOCAL_TIME(0,0,0.,#182);
#182=COORDINATED_UNIVERSAL_TIME_OFFSET(0,0,.BEHIND.);
#183=AXIS2_PLACEMENT_3D('',#248,#203,#204);
#184=AXIS2_PLACEMENT_3D('',#249,#205,#206);
#185=AXIS2_PLACEMENT_3D('',#252,#207,#208);
#186=AXIS2_PLACEMENT_3D('',#253,#209,#210);
#187=AXIS2_PLACEMENT_3D('',#255,#211,#212);
#188=AXIS2_PLACEMENT_3D('',#257,#213,#214);
#189=AXIS2_PLACEMENT_3D('',#258,#215,#216);
#190=AXIS2_PLACEMENT_3D('',#259,#217,#218);
#191=AXIS2_PLACEMENT_3D('',#262,#220,#221);
#192=AXIS2_PLACEMENT_3D('',#263,#222,#223);
#193=AXIS2_PLACEMENT_3D('',#265,#224,#225);
#194=AXIS2_PLACEMENT_3D('',#266,#226,#227);
#195=AXIS2_PLACEMENT_3D('',#268,#228,#229);
#196=AXIS2_PLACEMENT_3D('',#270,#231,#232);
#197=AXIS2_PLACEMENT_3D('',#271,#233,#234);
#198=AXIS2_PLACEMENT_3D('',#273,#235,#236);
#199=AXIS2_PLACEMENT_3D('',#276,#238,#239);
#200=AXIS2_PLACEMENT_3D('',#277,#240,#241);
#201=AXIS2_PLACEMENT_3D('',#278,#242,#243);
#202=AXIS2_PLACEMENT_3D('',#364,#245,#246);
#203=DIRECTION('axis',(0.,0.,1.));
#204=DIRECTION('refdir',(1.,0.,0.));
#205=DIRECTION('center_axis',(1.77635683940025E-16,-6.12323399573677E-17,
1.));
#206=DIRECTION('ref_axis',(1.,0.,-1.82190445066692E-16));
#207=DIRECTION('center_axis',(1.75298372309235E-16,0.,1.));
#208=DIRECTION('ref_axis',(-1.,0.,1.75298372309235E-16));
#209=DIRECTION('center_axis',(1.75298372309235E-16,0.,1.));
#210=DIRECTION('ref_axis',(-1.,0.,1.75298372309235E-16));
#211=DIRECTION('center_axis',(-1.13869028166683E-16,1.,6.12323399573677E-17));
#212=DIRECTION('ref_axis',(-1.,-1.13869028166683E-16,2.27738056333366E-16));
#213=DIRECTION('center_axis',(-1.75298372309235E-16,0.,-1.));
#214=DIRECTION('ref_axis',(-1.,0.,1.75298372309235E-16));
#215=DIRECTION('center_axis',(-1.75298372309235E-16,0.,-1.));
#216=DIRECTION('ref_axis',(-1.,0.,1.75298372309235E-16));
#217=DIRECTION('center_axis',(-1.75298372309235E-16,0.,-1.));
#218=DIRECTION('ref_axis',(-1.,0.,1.75298372309235E-16));
#219=DIRECTION('',(1.75298372309235E-16,0.,1.));
#220=DIRECTION('center_axis',(-1.77635683940025E-16,0.,-1.));
#221=DIRECTION('ref_axis',(-1.,0.,1.77635683940025E-16));
#222=DIRECTION('center_axis',(-1.77635683940025E-16,0.,-1.));
#223=DIRECTION('ref_axis',(-1.,0.,1.77635683940025E-16));
#224=DIRECTION('center_axis',(1.77635683940025E-16,0.,1.));
#225=DIRECTION('ref_axis',(-0.707106781186547,-0.707106781186547,2.51214793389404E-16));
#226=DIRECTION('center_axis',(-1.75298372309235E-16,0.,-1.));
#227=DIRECTION('ref_axis',(-1.,0.,1.75298372309235E-16));
#228=DIRECTION('center_axis',(-1.77635683940025E-16,0.,-1.));
#229=DIRECTION('ref_axis',(-1.,0.,1.77635683940025E-16));
#230=DIRECTION('',(1.75298372309235E-16,0.,1.));
#231=DIRECTION('center_axis',(-1.77635683940025E-16,0.,-1.));
#232=DIRECTION('ref_axis',(-1.,0.,1.77635683940025E-16));
#233=DIRECTION('center_axis',(0.,0.,-1.));
#234=DIRECTION('ref_axis',(-0.707106781186548,0.707106781186548,1.42735678062161E-16));
#235=DIRECTION('center_axis',(0.,0.,1.));
#236=DIRECTION('ref_axis',(-0.707106781186547,0.707106781186547,2.51214793389404E-16));
#237=DIRECTION('',(-0.353553390593273,0.353553390593273,0.866025403784439));
#238=DIRECTION('center_axis',(0.,0.,-1.));
#239=DIRECTION('ref_axis',(-0.707106781186547,0.707106781186547,0.));
#240=DIRECTION('center_axis',(0.,0.,1.));
#241=DIRECTION('ref_axis',(1.,0.,0.));
#242=DIRECTION('center_axis',(4.27539301408445E-16,0.,1.));
#243=DIRECTION('ref_axis',(-0.707106781186547,0.707106781186547,2.51214793389404E-16));
#244=DIRECTION('',(-4.27539301408445E-16,0.,-1.));
#245=DIRECTION('center_axis',(0.,1.,0.));
#246=DIRECTION('ref_axis',(1.,0.,0.));
#247=DIRECTION('',(0.,-1.,0.));
#248=CARTESIAN_POINT('',(0.,0.,0.));
#249=CARTESIAN_POINT('Origin',(6.58090060305772,12.5,-27.8999999166205));
#250=CARTESIAN_POINT('',(22.0809006030577,12.5,-23.8999999166205));
#251=CARTESIAN_POINT('',(-8.91909939694228,12.5,-23.8999999166205));
#252=CARTESIAN_POINT('Origin',(6.58090060305772,12.5,-23.8999999166205));
#253=CARTESIAN_POINT('Origin',(6.58090060305772,12.5,-23.8999999166205));
#254=CARTESIAN_POINT('',(-8.91909939694228,12.5,-31.8999999166205));
#255=CARTESIAN_POINT('Origin',(-8.91909939694228,12.5,-27.8999999166205));
#256=CARTESIAN_POINT('',(22.0809006030577,12.5,-31.8999999166205));
#257=CARTESIAN_POINT('Origin',(6.58090060305772,12.5,-31.8999999166205));
#258=CARTESIAN_POINT('Origin',(6.58090060305772,12.5,-31.8999999166205));
#259=CARTESIAN_POINT('Origin',(6.58090060305772,12.5,-20.8999999166205));
#260=CARTESIAN_POINT('',(22.0809006030577,12.5,-20.8999999166205));
#261=CARTESIAN_POINT('',(22.0809006030577,12.5,-20.8999999166205));
#262=CARTESIAN_POINT('Origin',(6.58090060305772,12.5,-20.8999999166205));
#263=CARTESIAN_POINT('Origin',(6.58090060305772,12.5,-20.8999999166205));
#264=CARTESIAN_POINT('',(15.4197353678896,3.66116523516816,-20.8999999166205));
#265=CARTESIAN_POINT('Origin',(6.58090060305772,12.5,-20.8999999166205));
#266=CARTESIAN_POINT('Origin',(6.58090060305772,12.5,-20.8999999166205));
#267=CARTESIAN_POINT('',(22.0809006030577,12.5,-39.8999999166205));
#268=CARTESIAN_POINT('Origin',(6.58090060305771,12.5,-39.8999999166205));
#269=CARTESIAN_POINT('',(22.0809006030577,12.5,-20.8999999166205));
#270=CARTESIAN_POINT('Origin',(6.58090060305771,12.5,-39.8999999166205));
#271=CARTESIAN_POINT('Origin',(6.58090060305778,12.5,137.501923872026));
#272=CARTESIAN_POINT('',(15.4197353678896,3.66116523516816,134.903847660673));
#273=CARTESIAN_POINT('Origin',(6.58090060305778,12.5,134.903847660673));
#274=CARTESIAN_POINT('',(13.29841502433,5.7824855787278,140.10000008338));
#275=CARTESIAN_POINT('',(14.3590751961098,4.72182540694798,137.501923872026));
#276=CARTESIAN_POINT('Origin',(6.58090060305778,12.5,140.10000008338));
#277=CARTESIAN_POINT('Origin',(-5.91909939694221,0.,140.10000008338));
#278=CARTESIAN_POINT('Origin',(6.58090060305773,12.5,19.3500000833795));
#279=CARTESIAN_POINT('',(15.4197353678896,3.66116523516816,19.3500000833795));
#280=CARTESIAN_POINT('',(6.58090060305778,25.,127.100000083379));
#281=CARTESIAN_POINT('',(0.580900603057777,23.4658560997307,121.100000083379));
#282=CARTESIAN_POINT('Ctrl Pts',(6.58090060305777,25.,127.100000083379));
#283=CARTESIAN_POINT('Ctrl Pts',(5.81436516436534,25.,127.100000083379));
#284=CARTESIAN_POINT('Ctrl Pts',(5.0049665295377,24.922948726735,126.944257979624));
#285=CARTESIAN_POINT('Ctrl Pts',(3.52993299407586,24.6451562229851,126.327859456224));
#286=CARTESIAN_POINT('Ctrl Pts',(2.86345682141787,24.4474832713669,125.867837675978));
#287=CARTESIAN_POINT('Ctrl Pts',(1.81187094706118,24.0680386279726,124.816251801622));
#288=CARTESIAN_POINT('Ctrl Pts',(1.35273067816085,23.8593189678934,124.150188921556));
#289=CARTESIAN_POINT('Ctrl Pts',(0.737036628845151,23.5551867223342,122.676912425969));
#290=CARTESIAN_POINT('Ctrl Pts',(0.580900603057775,23.4658560997307,121.868275362559));
#291=CARTESIAN_POINT('Ctrl Pts',(0.580900603057775,23.4658560997307,121.10000008338));
#292=CARTESIAN_POINT('',(6.58090060305778,25.,115.10000008338));
#293=CARTESIAN_POINT('Ctrl Pts',(0.580900603057777,23.4658560997307,121.100000083379));
#294=CARTESIAN_POINT('Ctrl Pts',(0.580900603057777,23.4658560997307,120.3317248042));
#295=CARTESIAN_POINT('Ctrl Pts',(0.737036628845161,23.5551867223342,119.52308774079));
#296=CARTESIAN_POINT('Ctrl Pts',(1.35273067816087,23.8593189678934,118.049811245203));
#297=CARTESIAN_POINT('Ctrl Pts',(1.81187094706119,24.0680386279726,117.383748365138));
#298=CARTESIAN_POINT('Ctrl Pts',(2.86345682141787,24.447483271367,116.332162490781));
#299=CARTESIAN_POINT('Ctrl Pts',(3.52993299407586,24.6451562229851,115.872140710535));
#300=CARTESIAN_POINT('Ctrl Pts',(5.00496652953769,24.922948726735,115.255742187135));
#301=CARTESIAN_POINT('Ctrl Pts',(5.81436516436535,25.,115.10000008338));
#302=CARTESIAN_POINT('Ctrl Pts',(6.58090060305778,25.,115.10000008338));
#303=CARTESIAN_POINT('Ctrl Pts',(6.58090060305778,25.,115.10000008338));
#304=CARTESIAN_POINT('Ctrl Pts',(7.34743604175021,25.,115.10000008338));
#305=CARTESIAN_POINT('Ctrl Pts',(8.15683467657786,24.922948726735,115.255742187135));
#306=CARTESIAN_POINT('Ctrl Pts',(9.63186821203971,24.6451562229851,115.872140710535));
#307=CARTESIAN_POINT('Ctrl Pts',(10.2983443846977,24.4474832713669,116.332162490781));
#308=CARTESIAN_POINT('Ctrl Pts',(11.3499302590544,24.0680386279726,117.383748365138));
#309=CARTESIAN_POINT('Ctrl Pts',(11.8090705279547,23.8593189678934,118.049811245203));
#310=CARTESIAN_POINT('Ctrl Pts',(12.4247645772704,23.5551867223342,119.52308774079));
#311=CARTESIAN_POINT('Ctrl Pts',(12.5809006030578,23.4658560997306,120.3317248042));
#312=CARTESIAN_POINT('Ctrl Pts',(12.5809006030578,23.4658560997306,121.100000083379));
#313=CARTESIAN_POINT('Ctrl Pts',(12.5809006030578,23.4658560997306,121.868275362559));
#314=CARTESIAN_POINT('Ctrl Pts',(12.4247645772704,23.5551867223342,122.676912425969));
#315=CARTESIAN_POINT('Ctrl Pts',(11.8090705279547,23.8593189678934,124.150188921556));
#316=CARTESIAN_POINT('Ctrl Pts',(11.3499302590544,24.0680386279726,124.816251801621));
#317=CARTESIAN_POINT('Ctrl Pts',(10.2983443846977,24.4474832713669,125.867837675978));
#318=CARTESIAN_POINT('Ctrl Pts',(9.63186821203971,24.6451562229851,126.327859456224));
#319=CARTESIAN_POINT('Ctrl Pts',(8.15683467657786,24.922948726735,126.944257979624));
#320=CARTESIAN_POINT('Ctrl Pts',(7.34743604175021,25.,127.100000083379));
#321=CARTESIAN_POINT('Ctrl Pts',(6.58090060305778,25.,127.100000083379));
#322=CARTESIAN_POINT('',(6.58090060305776,0.,127.100000083379));
#323=CARTESIAN_POINT('',(6.58090060305776,0.,115.10000008338));
#324=CARTESIAN_POINT('Ctrl Pts',(6.58090060305778,1.28369537222284E-15,
127.100000083379));
#325=CARTESIAN_POINT('Ctrl Pts',(7.34743604175021,2.32620135642651E-15,
127.100000083379));
#326=CARTESIAN_POINT('Ctrl Pts',(8.15683467657787,0.077051273265014,126.944257979624));
#327=CARTESIAN_POINT('Ctrl Pts',(9.6318682120397,0.354843777014921,126.327859456224));
#328=CARTESIAN_POINT('Ctrl Pts',(10.2983443846977,0.552516728633057,125.867837675978));
#329=CARTESIAN_POINT('Ctrl Pts',(11.3499302590544,0.931961372027362,124.816251801621));
#330=CARTESIAN_POINT('Ctrl Pts',(11.8090705279547,1.1406810321066,124.150188921556));
#331=CARTESIAN_POINT('Ctrl Pts',(12.4247645772704,1.44481327766579,122.676912425969));
#332=CARTESIAN_POINT('Ctrl Pts',(12.5809006030578,1.53414390026936,121.868275362559));
#333=CARTESIAN_POINT('Ctrl Pts',(12.5809006030578,1.53414390026936,121.100000083379));
#334=CARTESIAN_POINT('Ctrl Pts',(12.5809006030578,1.53414390026936,120.3317248042));
#335=CARTESIAN_POINT('Ctrl Pts',(12.4247645772704,1.44481327766579,119.52308774079));
#336=CARTESIAN_POINT('Ctrl Pts',(11.8090705279547,1.14068103210661,118.049811245203));
#337=CARTESIAN_POINT('Ctrl Pts',(11.3499302590544,0.931961372027362,117.383748365138));
#338=CARTESIAN_POINT('Ctrl Pts',(10.2983443846977,0.552516728633058,116.332162490781));
#339=CARTESIAN_POINT('Ctrl Pts',(9.63186821203971,0.354843777014923,115.872140710535));
#340=CARTESIAN_POINT('Ctrl Pts',(8.15683467657787,0.0770512732650156,115.255742187135));
#341=CARTESIAN_POINT('Ctrl Pts',(7.34743604175021,2.8708498932638E-15,115.10000008338));
#342=CARTESIAN_POINT('Ctrl Pts',(6.58090060305778,1.50920942409982E-15,
115.10000008338));
#343=CARTESIAN_POINT('',(0.580900603057777,1.53414390026935,121.10000008338));
#344=CARTESIAN_POINT('Ctrl Pts',(6.58090060305778,1.51788304147971E-15,
115.100000083379));
#345=CARTESIAN_POINT('Ctrl Pts',(5.81436516436535,1.02322458979123E-15,
115.100000083379));
#346=CARTESIAN_POINT('Ctrl Pts',(5.00496652953769,0.0770512732650102,115.255742187135));
#347=CARTESIAN_POINT('Ctrl Pts',(3.52993299407586,0.354843777014911,115.872140710535));
#348=CARTESIAN_POINT('Ctrl Pts',(2.86345682141787,0.55251672863305,116.332162490781));
#349=CARTESIAN_POINT('Ctrl Pts',(1.81187094706119,0.931961372027354,117.383748365138));
#350=CARTESIAN_POINT('Ctrl Pts',(1.35273067816089,1.14068103210658,118.049811245203));
#351=CARTESIAN_POINT('Ctrl Pts',(0.73703662884517,1.44481327766577,119.52308774079));
#352=CARTESIAN_POINT('Ctrl Pts',(0.580900603057775,1.53414390026935,120.3317248042));
#353=CARTESIAN_POINT('Ctrl Pts',(0.580900603057775,1.53414390026935,121.100000083379));
#354=CARTESIAN_POINT('Ctrl Pts',(0.580900603057777,1.53414390026935,121.10000008338));
#355=CARTESIAN_POINT('Ctrl Pts',(0.580900603057777,1.53414390026935,121.868275362559));
#356=CARTESIAN_POINT('Ctrl Pts',(0.73703662884516,1.44481327766578,122.676912425969));
#357=CARTESIAN_POINT('Ctrl Pts',(1.35273067816087,1.14068103210659,124.150188921556));
#358=CARTESIAN_POINT('Ctrl Pts',(1.81187094706118,0.931961372027359,124.816251801622));
#359=CARTESIAN_POINT('Ctrl Pts',(2.86345682141787,0.552516728633054,125.867837675978));
#360=CARTESIAN_POINT('Ctrl Pts',(3.52993299407586,0.354843777014913,126.327859456224));
#361=CARTESIAN_POINT('Ctrl Pts',(5.00496652953769,0.0770512732650105,126.944257979624));
#362=CARTESIAN_POINT('Ctrl Pts',(5.81436516436534,1.80181766192105E-15,
127.100000083379));
#363=CARTESIAN_POINT('Ctrl Pts',(6.58090060305778,1.90819582357449E-15,
127.100000083379));
#364=CARTESIAN_POINT('Origin',(6.58090060305778,-139.836282413794,121.100000083379));
#365=CARTESIAN_POINT('',(0.580900603057776,-139.836282413794,121.100000083379));
#366=UNCERTAINTY_MEASURE_WITH_UNIT(LENGTH_MEASURE(0.01),#370,
'DISTANCE_ACCURACY_VALUE',
'Maximum model space distance between geometric entities at asserted c
onnectivities');
#367=UNCERTAINTY_MEASURE_WITH_UNIT(LENGTH_MEASURE(0.01),#370,
'DISTANCE_ACCURACY_VALUE',
'Maximum model space distance between geometric entities at asserted c
onnectivities');
#368=(
GEOMETRIC_REPRESENTATION_CONTEXT(3)
GLOBAL_UNCERTAINTY_ASSIGNED_CONTEXT((#366))
GLOBAL_UNIT_ASSIGNED_CONTEXT((#370,#372,#373))
REPRESENTATION_CONTEXT('','3D')
);
#369=(
GEOMETRIC_REPRESENTATION_CONTEXT(3)
GLOBAL_UNCERTAINTY_ASSIGNED_CONTEXT((#367))
GLOBAL_UNIT_ASSIGNED_CONTEXT((#370,#372,#373))
REPRESENTATION_CONTEXT('','3D')
);
#370=(
LENGTH_UNIT()
NAMED_UNIT(*)
SI_UNIT(.MILLI.,.METRE.)
);
#371=(
LENGTH_UNIT()
NAMED_UNIT(*)
SI_UNIT(.CENTI.,.METRE.)
);
#372=(
NAMED_UNIT(*)
PLANE_ANGLE_UNIT()
SI_UNIT($,.RADIAN.)
);
#373=(
NAMED_UNIT(*)
SI_UNIT($,.STERADIAN.)
SOLID_ANGLE_UNIT()
);
#374=SHAPE_DEFINITION_REPRESENTATION(#375,#376);
#375=PRODUCT_DEFINITION_SHAPE('',$,#378);
#376=SHAPE_REPRESENTATION('',(#183),#368);
#377=PRODUCT_DEFINITION_CONTEXT('part definition',#382,'design');
#378=PRODUCT_DEFINITION('A09075','A12421',#379,#377);
#379=PRODUCT_DEFINITION_FORMATION('',$,#384);
#380=PRODUCT_RELATED_PRODUCT_CATEGORY('A12421','A12421',(#384));
#381=APPLICATION_PROTOCOL_DEFINITION('international standard',
'automotive_design',2009,#382);
#382=APPLICATION_CONTEXT(
'Core Data for Automotive Mechanical Design Process');
#383=PRODUCT_CONTEXT('part definition',#382,'mechanical');
#384=PRODUCT('A09075','A12421',$,(#383));
#385=PRESENTATION_STYLE_ASSIGNMENT((#386));
#386=SURFACE_STYLE_USAGE(.BOTH.,#389);
#387=SURFACE_STYLE_RENDERING_WITH_PROPERTIES($,#393,(#388));
#388=SURFACE_STYLE_TRANSPARENT(0.);
#389=SURFACE_SIDE_STYLE('',(#390,#387));
#390=SURFACE_STYLE_FILL_AREA(#391);
#391=FILL_AREA_STYLE('',(#392));
#392=FILL_AREA_STYLE_COLOUR('',#393);
#393=COLOUR_RGB('',0.745098039215686,0.737254901960784,0.729411764705882);
ENDSEC;
END-ISO-10303-21;
