ISO-10303-21;
HEADER;
/* Generated by software containing ST-Developer
 * from STEP Tools, Inc. (www.steptools.com) 
 */

FILE_DESCRIPTION(
/* description */ (''),
/* implementation_level */ '2;1');

FILE_NAME(
/* name */ 'A12420.stp',
/* time_stamp */ '2023-06-21T13:18:42+02:00',
/* author */ ('msn'),
/* organization */ (''),
/* preprocessor_version */ 'ST-DEVELOPER v19.2',
/* originating_system */ 'Autodesk Inventor 2024',
/* authorisation */ '');

FILE_SCHEMA (('AUTOMOTIVE_DESIGN { 1 0 10303 214 3 1 1 }'));
ENDSEC;

DATA;
#10=MECHANICAL_DESIGN_GEOMETRIC_PRESENTATION_REPRESENTATION('',(#13),#369);
#11=SHAPE_REPRESENTATION_RELATIONSHIP('SRR','None',#376,#12);
#12=ADVANCED_BREP_SHAPE_REPRESENTATION('',(#14),#368);
#13=STYLED_ITEM('',(#385),#14);
#14=MANIFOLD_SOLID_BREP('Solid2',#161);
#15=B_SPLINE_CURVE_WITH_KNOTS('',3,(#282,#283,#284,#285,#286,#287,#288,
#289,#290,#291),.UNSPECIFIED.,.F.,.F.,(4,2,2,2,4),(2.82497168489881,3.05908388786884,
3.29319609083886,3.52991250201864,3.76662891319842),.UNSPECIFIED.);
#16=B_SPLINE_CURVE_WITH_KNOTS('',3,(#293,#294,#295,#296,#297,#298,#299,
#300,#301,#302),.UNSPECIFIED.,.F.,.F.,(4,2,2,2,4),(3.76662891319842,4.0033453243782,
4.24006173555798,4.474173938528,4.70828614149802),.UNSPECIFIED.);
#17=B_SPLINE_CURVE_WITH_KNOTS('',3,(#303,#304,#305,#306,#307,#308,#309,
#310,#311,#312,#313,#314,#315,#316,#317,#318,#319,#320,#321),
 .UNSPECIFIED.,.F.,.F.,(4,2,2,2,3,2,2,2,4),(2.82497168489881,3.05908388786884,
3.29319609083886,3.52991250201864,3.76662891319842,4.0033453243782,4.24006173555798,
4.474173938528,4.70828614149802),.UNSPECIFIED.);
#18=B_SPLINE_CURVE_WITH_KNOTS('',3,(#324,#325,#326,#327,#328,#329,#330,
#331,#332,#333,#334,#335,#336,#337,#338,#339,#340,#341,#342),
 .UNSPECIFIED.,.F.,.F.,(4,2,2,2,3,2,2,2,4),(2.82497168489881,3.05908388786884,
3.29319609083886,3.52991250201864,3.76662891319842,4.0033453243782,4.24006173555798,
4.474173938528,4.70828614149802),.UNSPECIFIED.);
#19=B_SPLINE_CURVE_WITH_KNOTS('',3,(#344,#345,#346,#347,#348,#349,#350,
#351,#352,#353),.UNSPECIFIED.,.F.,.F.,(4,2,2,2,4),(2.82497168489881,3.05908388786884,
3.29319609083886,3.52991250201864,3.76662891319842),.UNSPECIFIED.);
#20=B_SPLINE_CURVE_WITH_KNOTS('',3,(#354,#355,#356,#357,#358,#359,#360,
#361,#362,#363),.UNSPECIFIED.,.F.,.F.,(4,2,2,2,4),(3.76662891319842,4.0033453243782,
4.24006173555797,4.474173938528,4.70828614149802),.UNSPECIFIED.);
#21=CONICAL_SURFACE('',#197,7.75,0.296705972839035);
#22=FACE_BOUND('',#54,.T.);
#23=FACE_BOUND('',#60,.T.);
#24=FACE_BOUND('',#61,.T.);
#25=PLANE('',#192);
#26=PLANE('',#196);
#27=PLANE('',#200);
#28=LINE('',#261,#33);
#29=LINE('',#269,#34);
#30=LINE('',#275,#35);
#31=LINE('',#279,#36);
#32=LINE('',#365,#37);
#33=VECTOR('',#219,15.5);
#34=VECTOR('',#230,15.5);
#35=VECTOR('',#237,7.75);
#36=VECTOR('',#244,9.);
#37=VECTOR('',#247,6.);
#38=CYLINDRICAL_SURFACE('',#190,15.5);
#39=CYLINDRICAL_SURFACE('',#194,15.5);
#40=CYLINDRICAL_SURFACE('',#201,9.);
#41=CYLINDRICAL_SURFACE('',#202,6.);
#42=FACE_OUTER_BOUND('',#51,.T.);
#43=FACE_OUTER_BOUND('',#52,.T.);
#44=FACE_OUTER_BOUND('',#53,.T.);
#45=FACE_OUTER_BOUND('',#55,.T.);
#46=FACE_OUTER_BOUND('',#56,.T.);
#47=FACE_OUTER_BOUND('',#57,.T.);
#48=FACE_OUTER_BOUND('',#58,.T.);
#49=FACE_OUTER_BOUND('',#59,.T.);
#50=FACE_OUTER_BOUND('',#62,.T.);
#51=EDGE_LOOP('',(#109,#110,#111,#112,#113,#114));
#52=EDGE_LOOP('',(#115,#116,#117,#118,#119));
#53=EDGE_LOOP('',(#120));
#54=EDGE_LOOP('',(#121));
#55=EDGE_LOOP('',(#122,#123,#124,#125,#126));
#56=EDGE_LOOP('',(#127));
#57=EDGE_LOOP('',(#128,#129,#130,#131));
#58=EDGE_LOOP('',(#132));
#59=EDGE_LOOP('',(#133,#134,#135,#136));
#60=EDGE_LOOP('',(#137,#138,#139));
#61=EDGE_LOOP('',(#140,#141,#142));
#62=EDGE_LOOP('',(#143,#144,#145,#146,#147,#148,#149,#150));
#63=CIRCLE('',#185,15.5);
#64=CIRCLE('',#186,15.5);
#65=CIRCLE('',#187,4.);
#66=CIRCLE('',#188,15.5);
#67=CIRCLE('',#189,15.5);
#68=CIRCLE('',#191,15.5);
#69=CIRCLE('',#193,9.);
#70=CIRCLE('',#195,15.5);
#71=CIRCLE('',#198,9.);
#72=CIRCLE('',#199,6.5);
#73=VERTEX_POINT('',#250);
#74=VERTEX_POINT('',#251);
#75=VERTEX_POINT('',#254);
#76=VERTEX_POINT('',#256);
#77=VERTEX_POINT('',#260);
#78=VERTEX_POINT('',#264);
#79=VERTEX_POINT('',#267);
#80=VERTEX_POINT('',#272);
#81=VERTEX_POINT('',#274);
#82=VERTEX_POINT('',#280);
#83=VERTEX_POINT('',#281);
#84=VERTEX_POINT('',#292);
#85=VERTEX_POINT('',#322);
#86=VERTEX_POINT('',#323);
#87=VERTEX_POINT('',#343);
#88=EDGE_CURVE('',#73,#74,#63,.T.);
#89=EDGE_CURVE('',#74,#73,#64,.T.);
#90=EDGE_CURVE('',#74,#75,#65,.T.);
#91=EDGE_CURVE('',#76,#75,#66,.T.);
#92=EDGE_CURVE('',#75,#76,#67,.T.);
#93=EDGE_CURVE('',#73,#77,#28,.T.);
#94=EDGE_CURVE('',#77,#77,#68,.T.);
#95=EDGE_CURVE('',#78,#78,#69,.T.);
#96=EDGE_CURVE('',#79,#79,#70,.T.);
#97=EDGE_CURVE('',#79,#76,#29,.T.);
#98=EDGE_CURVE('',#80,#80,#71,.T.);
#99=EDGE_CURVE('',#80,#81,#30,.T.);
#100=EDGE_CURVE('',#81,#81,#72,.T.);
#101=EDGE_CURVE('',#80,#78,#31,.T.);
#102=EDGE_CURVE('',#82,#83,#15,.T.);
#103=EDGE_CURVE('',#83,#84,#16,.T.);
#104=EDGE_CURVE('',#84,#82,#17,.T.);
#105=EDGE_CURVE('',#85,#86,#18,.T.);
#106=EDGE_CURVE('',#86,#87,#19,.T.);
#107=EDGE_CURVE('',#87,#85,#20,.T.);
#108=EDGE_CURVE('',#83,#87,#32,.T.);
#109=ORIENTED_EDGE('',*,*,#88,.F.);
#110=ORIENTED_EDGE('',*,*,#89,.F.);
#111=ORIENTED_EDGE('',*,*,#90,.T.);
#112=ORIENTED_EDGE('',*,*,#91,.F.);
#113=ORIENTED_EDGE('',*,*,#92,.F.);
#114=ORIENTED_EDGE('',*,*,#90,.F.);
#115=ORIENTED_EDGE('',*,*,#88,.T.);
#116=ORIENTED_EDGE('',*,*,#89,.T.);
#117=ORIENTED_EDGE('',*,*,#93,.T.);
#118=ORIENTED_EDGE('',*,*,#94,.T.);
#119=ORIENTED_EDGE('',*,*,#93,.F.);
#120=ORIENTED_EDGE('',*,*,#94,.F.);
#121=ORIENTED_EDGE('',*,*,#95,.F.);
#122=ORIENTED_EDGE('',*,*,#96,.F.);
#123=ORIENTED_EDGE('',*,*,#97,.T.);
#124=ORIENTED_EDGE('',*,*,#91,.T.);
#125=ORIENTED_EDGE('',*,*,#92,.T.);
#126=ORIENTED_EDGE('',*,*,#97,.F.);
#127=ORIENTED_EDGE('',*,*,#96,.T.);
#128=ORIENTED_EDGE('',*,*,#98,.T.);
#129=ORIENTED_EDGE('',*,*,#99,.T.);
#130=ORIENTED_EDGE('',*,*,#100,.T.);
#131=ORIENTED_EDGE('',*,*,#99,.F.);
#132=ORIENTED_EDGE('',*,*,#100,.F.);
#133=ORIENTED_EDGE('',*,*,#98,.F.);
#134=ORIENTED_EDGE('',*,*,#101,.T.);
#135=ORIENTED_EDGE('',*,*,#95,.T.);
#136=ORIENTED_EDGE('',*,*,#101,.F.);
#137=ORIENTED_EDGE('',*,*,#102,.T.);
#138=ORIENTED_EDGE('',*,*,#103,.T.);
#139=ORIENTED_EDGE('',*,*,#104,.T.);
#140=ORIENTED_EDGE('',*,*,#105,.T.);
#141=ORIENTED_EDGE('',*,*,#106,.T.);
#142=ORIENTED_EDGE('',*,*,#107,.T.);
#143=ORIENTED_EDGE('',*,*,#104,.F.);
#144=ORIENTED_EDGE('',*,*,#103,.F.);
#145=ORIENTED_EDGE('',*,*,#108,.T.);
#146=ORIENTED_EDGE('',*,*,#106,.F.);
#147=ORIENTED_EDGE('',*,*,#105,.F.);
#148=ORIENTED_EDGE('',*,*,#107,.F.);
#149=ORIENTED_EDGE('',*,*,#108,.F.);
#150=ORIENTED_EDGE('',*,*,#102,.F.);
#151=TOROIDAL_SURFACE('',#184,15.5,4.);
#152=ADVANCED_FACE('',(#42),#151,.F.);
#153=ADVANCED_FACE('',(#43),#38,.T.);
#154=ADVANCED_FACE('',(#44,#22),#25,.F.);
#155=ADVANCED_FACE('',(#45),#39,.T.);
#156=ADVANCED_FACE('',(#46),#26,.T.);
#157=ADVANCED_FACE('',(#47),#21,.T.);
#158=ADVANCED_FACE('',(#48),#27,.T.);
#159=ADVANCED_FACE('',(#49,#23,#24),#40,.T.);
#160=ADVANCED_FACE('',(#50),#41,.F.);
#161=CLOSED_SHELL('',(#152,#153,#154,#155,#156,#157,#158,#159,#160));
#162=DERIVED_UNIT_ELEMENT(#165,1.);
#163=DERIVED_UNIT_ELEMENT(#371,-3.);
#164=DIMENSIONAL_EXPONENTS(0.,1.,0.,0.,0.,0.,0.);
#165=(
CONVERSION_BASED_UNIT('gram',#167)
MASS_UNIT()
NAMED_UNIT(#164)
);
#166=(
MASS_UNIT()
NAMED_UNIT(*)
SI_UNIT(.KILO.,.GRAM.)
);
#167=MASS_MEASURE_WITH_UNIT(MASS_MEASURE(0.001),#166);
#168=DERIVED_UNIT((#162,#163));
#169=MEASURE_REPRESENTATION_ITEM('density measure',
POSITIVE_RATIO_MEASURE(7.85),#168);
#170=PROPERTY_DEFINITION_REPRESENTATION(#175,#172);
#171=PROPERTY_DEFINITION_REPRESENTATION(#176,#173);
#172=REPRESENTATION('material name',(#174),#368);
#173=REPRESENTATION('density',(#169),#368);
#174=DESCRIPTIVE_REPRESENTATION_ITEM('Steel, Galvanized',
'Steel, Galvanized');
#175=PROPERTY_DEFINITION('material property','material name',#378);
#176=PROPERTY_DEFINITION('material property','density of part',#378);
#177=DATE_TIME_ROLE('creation_date');
#178=APPLIED_DATE_AND_TIME_ASSIGNMENT(#179,#177,(#378));
#179=DATE_AND_TIME(#180,#181);
#180=CALENDAR_DATE(2023,12,6);
#181=LOCAL_TIME(0,0,0.,#182);
#182=COORDINATED_UNIVERSAL_TIME_OFFSET(0,0,.BEHIND.);
#183=AXIS2_PLACEMENT_3D('',#248,#203,#204);
#184=AXIS2_PLACEMENT_3D('',#249,#205,#206);
#185=AXIS2_PLACEMENT_3D('',#252,#207,#208);
#186=AXIS2_PLACEMENT_3D('',#253,#209,#210);
#187=AXIS2_PLACEMENT_3D('',#255,#211,#212);
#188=AXIS2_PLACEMENT_3D('',#257,#213,#214);
#189=AXIS2_PLACEMENT_3D('',#258,#215,#216);
#190=AXIS2_PLACEMENT_3D('',#259,#217,#218);
#191=AXIS2_PLACEMENT_3D('',#262,#220,#221);
#192=AXIS2_PLACEMENT_3D('',#263,#222,#223);
#193=AXIS2_PLACEMENT_3D('',#265,#224,#225);
#194=AXIS2_PLACEMENT_3D('',#266,#226,#227);
#195=AXIS2_PLACEMENT_3D('',#268,#228,#229);
#196=AXIS2_PLACEMENT_3D('',#270,#231,#232);
#197=AXIS2_PLACEMENT_3D('',#271,#233,#234);
#198=AXIS2_PLACEMENT_3D('',#273,#235,#236);
#199=AXIS2_PLACEMENT_3D('',#276,#238,#239);
#200=AXIS2_PLACEMENT_3D('',#277,#240,#241);
#201=AXIS2_PLACEMENT_3D('',#278,#242,#243);
#202=AXIS2_PLACEMENT_3D('',#364,#245,#246);
#203=DIRECTION('axis',(0.,0.,1.));
#204=DIRECTION('refdir',(1.,0.,0.));
#205=DIRECTION('center_axis',(0.,-6.12323399573677E-17,1.));
#206=DIRECTION('ref_axis',(1.,0.,0.));
#207=DIRECTION('center_axis',(0.,0.,1.));
#208=DIRECTION('ref_axis',(-1.,0.,0.));
#209=DIRECTION('center_axis',(0.,0.,1.));
#210=DIRECTION('ref_axis',(-1.,0.,0.));
#211=DIRECTION('center_axis',(-1.13869028166683E-16,1.,6.12323399573677E-17));
#212=DIRECTION('ref_axis',(-1.,-1.13869028166683E-16,0.));
#213=DIRECTION('center_axis',(0.,0.,-1.));
#214=DIRECTION('ref_axis',(-1.,0.,0.));
#215=DIRECTION('center_axis',(0.,0.,-1.));
#216=DIRECTION('ref_axis',(-1.,0.,0.));
#217=DIRECTION('center_axis',(0.,0.,-1.));
#218=DIRECTION('ref_axis',(-1.,0.,0.));
#219=DIRECTION('',(0.,0.,1.));
#220=DIRECTION('center_axis',(0.,0.,-1.));
#221=DIRECTION('ref_axis',(-1.,0.,0.));
#222=DIRECTION('center_axis',(0.,0.,-1.));
#223=DIRECTION('ref_axis',(-1.,0.,0.));
#224=DIRECTION('center_axis',(0.,0.,1.));
#225=DIRECTION('ref_axis',(-0.707106781186548,-0.707106781186547,3.48909435263061E-16));
#226=DIRECTION('center_axis',(0.,0.,-1.));
#227=DIRECTION('ref_axis',(-1.,0.,0.));
#228=DIRECTION('center_axis',(0.,0.,-1.));
#229=DIRECTION('ref_axis',(-1.,0.,0.));
#230=DIRECTION('',(0.,0.,1.));
#231=DIRECTION('center_axis',(0.,0.,-1.));
#232=DIRECTION('ref_axis',(-1.,0.,0.));
#233=DIRECTION('center_axis',(0.,0.,-1.));
#234=DIRECTION('ref_axis',(-0.707106781186547,0.707106781186547,2.02592575314035E-16));
#235=DIRECTION('center_axis',(0.,0.,1.));
#236=DIRECTION('ref_axis',(-0.707106781186548,0.707106781186548,3.48909435263061E-16));
#237=DIRECTION('',(-0.206738015036517,0.206738015036517,0.956304755963036));
#238=DIRECTION('center_axis',(0.,0.,-1.));
#239=DIRECTION('ref_axis',(-0.707106781186548,0.707106781186548,0.));
#240=DIRECTION('center_axis',(0.,0.,1.));
#241=DIRECTION('ref_axis',(1.,0.,0.));
#242=DIRECTION('center_axis',(4.29161841451741E-16,0.,1.));
#243=DIRECTION('ref_axis',(-0.707106781186548,0.707106781186548,3.48909435263061E-16));
#244=DIRECTION('',(-4.29161841451741E-16,0.,-1.));
#245=DIRECTION('center_axis',(0.,1.,0.));
#246=DIRECTION('ref_axis',(1.,0.,0.));
#247=DIRECTION('',(0.,-1.,0.));
#248=CARTESIAN_POINT('',(0.,0.,0.));
#249=CARTESIAN_POINT('Origin',(3.08090060305772,9.,-28.8999999166205));
#250=CARTESIAN_POINT('',(18.5809006030577,9.,-24.8999999166205));
#251=CARTESIAN_POINT('',(-12.4190993969423,9.,-24.8999999166205));
#252=CARTESIAN_POINT('Origin',(3.08090060305772,9.,-24.8999999166205));
#253=CARTESIAN_POINT('Origin',(3.08090060305772,9.,-24.8999999166205));
#254=CARTESIAN_POINT('',(-12.4190993969423,9.,-32.8999999166205));
#255=CARTESIAN_POINT('Origin',(-12.4190993969423,9.,-28.8999999166205));
#256=CARTESIAN_POINT('',(18.5809006030577,9.,-32.8999999166205));
#257=CARTESIAN_POINT('Origin',(3.08090060305772,9.,-32.8999999166205));
#258=CARTESIAN_POINT('Origin',(3.08090060305772,9.,-32.8999999166205));
#259=CARTESIAN_POINT('Origin',(3.08090060305772,9.,-20.8999999166205));
#260=CARTESIAN_POINT('',(18.5809006030577,9.,-20.8999999166205));
#261=CARTESIAN_POINT('',(18.5809006030577,9.,-20.8999999166205));
#262=CARTESIAN_POINT('Origin',(3.08090060305772,9.,-20.8999999166205));
#263=CARTESIAN_POINT('Origin',(3.08090060305772,9.,-20.8999999166205));
#264=CARTESIAN_POINT('',(9.44486163373665,2.63603896932107,-20.8999999166205));
#265=CARTESIAN_POINT('Origin',(3.08090060305772,9.,-20.8999999166205));
#266=CARTESIAN_POINT('Origin',(3.08090060305772,9.,-20.8999999166205));
#267=CARTESIAN_POINT('',(18.5809006030577,9.,-40.8999999166205));
#268=CARTESIAN_POINT('Origin',(3.08090060305772,9.,-40.8999999166205));
#269=CARTESIAN_POINT('',(18.5809006030577,9.,-20.8999999166205));
#270=CARTESIAN_POINT('Origin',(3.08090060305772,9.,-40.8999999166205));
#271=CARTESIAN_POINT('Origin',(3.08090060305776,9.,94.0114343102743));
#272=CARTESIAN_POINT('',(9.44486163373669,2.63603896932107,89.9228685371692));
#273=CARTESIAN_POINT('Origin',(3.08090060305776,9.,89.9228685371692));
#274=CARTESIAN_POINT('',(7.67709468077032,4.40380592228744,98.1000000833795));
#275=CARTESIAN_POINT('',(8.56097815725351,3.51992244580426,94.0114343102743));
#276=CARTESIAN_POINT('Origin',(3.08090060305776,9.,98.1000000833795));
#277=CARTESIAN_POINT('Origin',(-5.91909939694223,0.,98.1000000833795));
#278=CARTESIAN_POINT('Origin',(3.08090060305773,9.,8.8500000833795));
#279=CARTESIAN_POINT('',(9.44486163373666,2.63603896932107,8.85000008337949));
#280=CARTESIAN_POINT('',(3.08090060305776,18.,89.1000000833795));
#281=CARTESIAN_POINT('',(-2.91909939694224,15.7082039324994,83.1000000833795));
#282=CARTESIAN_POINT('Ctrl Pts',(3.08090060305776,18.,89.1000000833795));
#283=CARTESIAN_POINT('Ctrl Pts',(2.30052659315768,18.,89.1000000833795));
#284=CARTESIAN_POINT('Ctrl Pts',(1.48477318210374,17.8900707307128,88.9387336775887));
#285=CARTESIAN_POINT('Ctrl Pts',(0.0124101699568441,17.4950188657095,88.3175470697107));
#286=CARTESIAN_POINT('Ctrl Pts',(-0.645571194108061,17.2131578103248,87.8588096604522));
#287=CARTESIAN_POINT('Ctrl Pts',(-1.68365071341936,16.6582809672548,86.8207301411409));
#288=CARTESIAN_POINT('Ctrl Pts',(-2.13859353200075,16.3423426167943,86.1640006103691));
#289=CARTESIAN_POINT('Ctrl Pts',(-2.75616572542448,15.8616170676245,84.6999539640002));
#290=CARTESIAN_POINT('Ctrl Pts',(-2.91909939694224,15.7082039324994,83.8890547873121));
#291=CARTESIAN_POINT('Ctrl Pts',(-2.91909939694224,15.7082039324994,83.1000000833795));
#292=CARTESIAN_POINT('',(3.08090060305776,18.,77.1000000833795));
#293=CARTESIAN_POINT('Ctrl Pts',(-2.91909939694224,15.7082039324994,83.1000000833795));
#294=CARTESIAN_POINT('Ctrl Pts',(-2.91909939694224,15.7082039324994,82.3109453794469));
#295=CARTESIAN_POINT('Ctrl Pts',(-2.75616572542448,15.8616170676245,81.5000462027588));
#296=CARTESIAN_POINT('Ctrl Pts',(-2.13859353200075,16.3423426167943,80.0359995563898));
#297=CARTESIAN_POINT('Ctrl Pts',(-1.68365071341936,16.6582809672548,79.379270025618));
#298=CARTESIAN_POINT('Ctrl Pts',(-0.645571194108054,17.2131578103248,78.3411905063067));
#299=CARTESIAN_POINT('Ctrl Pts',(0.0124101699568514,17.4950188657095,77.8824530970483));
#300=CARTESIAN_POINT('Ctrl Pts',(1.48477318210375,17.8900707307128,77.2612664891703));
#301=CARTESIAN_POINT('Ctrl Pts',(2.30052659315768,18.,77.1000000833795));
#302=CARTESIAN_POINT('Ctrl Pts',(3.08090060305776,18.,77.1000000833795));
#303=CARTESIAN_POINT('Ctrl Pts',(3.08090060305776,18.,77.1000000833795));
#304=CARTESIAN_POINT('Ctrl Pts',(3.86127461295784,18.,77.1000000833795));
#305=CARTESIAN_POINT('Ctrl Pts',(4.67702802401177,17.8900707307128,77.2612664891703));
#306=CARTESIAN_POINT('Ctrl Pts',(6.14939103615867,17.4950188657095,77.8824530970483));
#307=CARTESIAN_POINT('Ctrl Pts',(6.80737240022358,17.2131578103248,78.3411905063067));
#308=CARTESIAN_POINT('Ctrl Pts',(7.84545191953488,16.6582809672548,79.3792700256181));
#309=CARTESIAN_POINT('Ctrl Pts',(8.30039473811628,16.3423426167943,80.0359995563898));
#310=CARTESIAN_POINT('Ctrl Pts',(8.91796693154001,15.8616170676245,81.5000462027588));
#311=CARTESIAN_POINT('Ctrl Pts',(9.08090060305776,15.7082039324994,82.3109453794469));
#312=CARTESIAN_POINT('Ctrl Pts',(9.08090060305776,15.7082039324994,83.1000000833795));
#313=CARTESIAN_POINT('Ctrl Pts',(9.08090060305776,15.7082039324994,83.8890547873121));
#314=CARTESIAN_POINT('Ctrl Pts',(8.91796693154001,15.8616170676245,84.6999539640002));
#315=CARTESIAN_POINT('Ctrl Pts',(8.30039473811628,16.3423426167943,86.1640006103691));
#316=CARTESIAN_POINT('Ctrl Pts',(7.84545191953488,16.6582809672548,86.8207301411409));
#317=CARTESIAN_POINT('Ctrl Pts',(6.80737240022358,17.2131578103248,87.8588096604522));
#318=CARTESIAN_POINT('Ctrl Pts',(6.14939103615868,17.4950188657095,88.3175470697107));
#319=CARTESIAN_POINT('Ctrl Pts',(4.67702802401177,17.8900707307128,88.9387336775887));
#320=CARTESIAN_POINT('Ctrl Pts',(3.86127461295784,18.,89.1000000833795));
#321=CARTESIAN_POINT('Ctrl Pts',(3.08090060305776,18.,89.1000000833795));
#322=CARTESIAN_POINT('',(3.08090060305775,0.,89.1000000833795));
#323=CARTESIAN_POINT('',(3.08090060305775,0.,77.1000000833795));
#324=CARTESIAN_POINT('Ctrl Pts',(3.08090060305776,-5.3776427755281E-16,
89.1000000833795));
#325=CARTESIAN_POINT('Ctrl Pts',(3.86127461295784,2.85305456376812E-16,
89.1000000833795));
#326=CARTESIAN_POINT('Ctrl Pts',(4.67702802401178,0.109929269287191,88.9387336775887));
#327=CARTESIAN_POINT('Ctrl Pts',(6.14939103615868,0.50498113429046,88.3175470697107));
#328=CARTESIAN_POINT('Ctrl Pts',(6.80737240022358,0.78684218967519,87.8588096604522));
#329=CARTESIAN_POINT('Ctrl Pts',(7.84545191953488,1.34171903274517,86.8207301411409));
#330=CARTESIAN_POINT('Ctrl Pts',(8.30039473811627,1.6576573832057,86.1640006103691));
#331=CARTESIAN_POINT('Ctrl Pts',(8.91796693154,2.13838293237549,84.6999539640002));
#332=CARTESIAN_POINT('Ctrl Pts',(9.08090060305776,2.29179606750064,83.8890547873121));
#333=CARTESIAN_POINT('Ctrl Pts',(9.08090060305776,2.29179606750064,83.1000000833795));
#334=CARTESIAN_POINT('Ctrl Pts',(9.08090060305776,2.29179606750064,82.3109453794469));
#335=CARTESIAN_POINT('Ctrl Pts',(8.91796693154,2.13838293237549,81.5000462027588));
#336=CARTESIAN_POINT('Ctrl Pts',(8.30039473811627,1.6576573832057,80.0359995563899));
#337=CARTESIAN_POINT('Ctrl Pts',(7.84545191953488,1.34171903274518,79.3792700256181));
#338=CARTESIAN_POINT('Ctrl Pts',(6.80737240022358,0.786842189675191,78.3411905063067));
#339=CARTESIAN_POINT('Ctrl Pts',(6.14939103615868,0.50498113429046,77.8824530970483));
#340=CARTESIAN_POINT('Ctrl Pts',(4.67702802401178,0.109929269287191,77.2612664891703));
#341=CARTESIAN_POINT('Ctrl Pts',(3.86127461295784,5.79819429541562E-16,
77.1000000833795));
#342=CARTESIAN_POINT('Ctrl Pts',(3.08090060305776,-5.89805981832114E-16,
77.1000000833795));
#343=CARTESIAN_POINT('',(-2.91909939694224,2.29179606750063,83.1000000833795));
#344=CARTESIAN_POINT('Ctrl Pts',(3.08090060305776,3.81639164714898E-16,
77.1000000833795));
#345=CARTESIAN_POINT('Ctrl Pts',(2.30052659315768,2.73340515513632E-16,
77.1000000833795));
#346=CARTESIAN_POINT('Ctrl Pts',(1.48477318210375,0.109929269287189,77.2612664891703));
#347=CARTESIAN_POINT('Ctrl Pts',(0.0124101699568548,0.504981134290453,77.8824530970483));
#348=CARTESIAN_POINT('Ctrl Pts',(-0.645571194108054,0.786842189675184,78.3411905063067));
#349=CARTESIAN_POINT('Ctrl Pts',(-1.68365071341936,1.34171903274517,79.379270025618));
#350=CARTESIAN_POINT('Ctrl Pts',(-2.13859353200075,1.6576573832057,80.0359995563898));
#351=CARTESIAN_POINT('Ctrl Pts',(-2.75616572542448,2.13838293237548,81.5000462027588));
#352=CARTESIAN_POINT('Ctrl Pts',(-2.91909939694224,2.29179606750063,82.3109453794469));
#353=CARTESIAN_POINT('Ctrl Pts',(-2.91909939694224,2.29179606750063,83.1000000833795));
#354=CARTESIAN_POINT('Ctrl Pts',(-2.91909939694224,2.29179606750063,83.1000000833795));
#355=CARTESIAN_POINT('Ctrl Pts',(-2.91909939694224,2.29179606750063,83.8890547873121));
#356=CARTESIAN_POINT('Ctrl Pts',(-2.75616572542448,2.13838293237548,84.6999539640002));
#357=CARTESIAN_POINT('Ctrl Pts',(-2.13859353200075,1.6576573832057,86.1640006103691));
#358=CARTESIAN_POINT('Ctrl Pts',(-1.68365071341936,1.34171903274517,86.8207301411409));
#359=CARTESIAN_POINT('Ctrl Pts',(-0.645571194108061,0.786842189675189,87.8588096604522));
#360=CARTESIAN_POINT('Ctrl Pts',(0.0124101699568312,0.504981134290464,88.3175470697107));
#361=CARTESIAN_POINT('Ctrl Pts',(1.48477318210373,0.109929269287194,88.9387336775887));
#362=CARTESIAN_POINT('Ctrl Pts',(2.30052659315768,8.51538596923E-16,89.1000000833795));
#363=CARTESIAN_POINT('Ctrl Pts',(3.08090060305776,2.77555756156289E-16,
89.1000000833795));
#364=CARTESIAN_POINT('Origin',(3.08090060305776,-103.692234756372,83.1000000833795));
#365=CARTESIAN_POINT('',(-2.91909939694224,-103.692234756372,83.1000000833795));
#366=UNCERTAINTY_MEASURE_WITH_UNIT(LENGTH_MEASURE(0.01),#370,
'DISTANCE_ACCURACY_VALUE',
'Maximum model space distance between geometric entities at asserted c
onnectivities');
#367=UNCERTAINTY_MEASURE_WITH_UNIT(LENGTH_MEASURE(0.01),#370,
'DISTANCE_ACCURACY_VALUE',
'Maximum model space distance between geometric entities at asserted c
onnectivities');
#368=(
GEOMETRIC_REPRESENTATION_CONTEXT(3)
GLOBAL_UNCERTAINTY_ASSIGNED_CONTEXT((#366))
GLOBAL_UNIT_ASSIGNED_CONTEXT((#370,#372,#373))
REPRESENTATION_CONTEXT('','3D')
);
#369=(
GEOMETRIC_REPRESENTATION_CONTEXT(3)
GLOBAL_UNCERTAINTY_ASSIGNED_CONTEXT((#367))
GLOBAL_UNIT_ASSIGNED_CONTEXT((#370,#372,#373))
REPRESENTATION_CONTEXT('','3D')
);
#370=(
LENGTH_UNIT()
NAMED_UNIT(*)
SI_UNIT(.MILLI.,.METRE.)
);
#371=(
LENGTH_UNIT()
NAMED_UNIT(*)
SI_UNIT(.CENTI.,.METRE.)
);
#372=(
NAMED_UNIT(*)
PLANE_ANGLE_UNIT()
SI_UNIT($,.RADIAN.)
);
#373=(
NAMED_UNIT(*)
SI_UNIT($,.STERADIAN.)
SOLID_ANGLE_UNIT()
);
#374=SHAPE_DEFINITION_REPRESENTATION(#375,#376);
#375=PRODUCT_DEFINITION_SHAPE('',$,#378);
#376=SHAPE_REPRESENTATION('',(#183),#368);
#377=PRODUCT_DEFINITION_CONTEXT('part definition',#382,'design');
#378=PRODUCT_DEFINITION('A09075','A12420',#379,#377);
#379=PRODUCT_DEFINITION_FORMATION('',$,#384);
#380=PRODUCT_RELATED_PRODUCT_CATEGORY('A12420','A12420',(#384));
#381=APPLICATION_PROTOCOL_DEFINITION('international standard',
'automotive_design',2009,#382);
#382=APPLICATION_CONTEXT(
'Core Data for Automotive Mechanical Design Process');
#383=PRODUCT_CONTEXT('part definition',#382,'mechanical');
#384=PRODUCT('A09075','A12420',$,(#383));
#385=PRESENTATION_STYLE_ASSIGNMENT((#386));
#386=SURFACE_STYLE_USAGE(.BOTH.,#389);
#387=SURFACE_STYLE_RENDERING_WITH_PROPERTIES($,#393,(#388));
#388=SURFACE_STYLE_TRANSPARENT(0.);
#389=SURFACE_SIDE_STYLE('',(#390,#387));
#390=SURFACE_STYLE_FILL_AREA(#391);
#391=FILL_AREA_STYLE('',(#392));
#392=FILL_AREA_STYLE_COLOUR('',#393);
#393=COLOUR_RGB('',0.745098039215686,0.737254901960784,0.729411764705882);
ENDSEC;
END-ISO-10303-21;
