ISO-10303-21;
HEADER;
/* Generated by software containing ST-Developer
 * from STEP Tools, Inc. (www.steptools.com) 
 */

FILE_DESCRIPTION(
/* description */ (''),
/* implementation_level */ '2;1');

FILE_NAME(
/* name */ 'A09073.stp',
/* time_stamp */ '2023-06-21T13:23:43+02:00',
/* author */ ('msn'),
/* organization */ (''),
/* preprocessor_version */ 'ST-DEVELOPER v19.2',
/* originating_system */ 'Autodesk Inventor 2024',
/* authorisation */ '');

FILE_SCHEMA (('AUTOMOTIVE_DESIGN { 1 0 10303 214 3 1 1 }'));
ENDSEC;

DATA;
#10=MECHANICAL_DESIGN_GEOMETRIC_PRESENTATION_REPRESENTATION('',(#13),#369);
#11=SHAPE_REPRESENTATION_RELATIONSHIP('SRR','None',#376,#12);
#12=ADVANCED_BREP_SHAPE_REPRESENTATION('',(#14),#368);
#13=STYLED_ITEM('',(#385),#14);
#14=MANIFOLD_SOLID_BREP('Solid2',#161);
#15=B_SPLINE_CURVE_WITH_KNOTS('',3,(#282,#283,#284,#285,#286,#287,#288,
#289,#290,#291),.UNSPECIFIED.,.F.,.F.,(4,2,2,2,4),(2.78016194650703,3.01136840835909,
3.24257487021114,3.47472873277692,3.70688259534271),.UNSPECIFIED.);
#16=B_SPLINE_CURVE_WITH_KNOTS('',3,(#293,#294,#295,#296,#297,#298,#299,
#300,#301,#302),.UNSPECIFIED.,.F.,.F.,(4,2,2,2,4),(3.70688259534271,3.9390364579085,
4.17119032047429,4.40239678232634,4.63360324417839),.UNSPECIFIED.);
#17=B_SPLINE_CURVE_WITH_KNOTS('',3,(#303,#304,#305,#306,#307,#308,#309,
#310,#311,#312,#313,#314,#315,#316,#317,#318,#319,#320,#321),
 .UNSPECIFIED.,.F.,.F.,(4,2,2,2,3,2,2,2,4),(2.78016194650704,3.01136840835909,
3.24257487021114,3.47472873277693,3.70688259534271,3.9390364579085,4.17119032047429,
4.40239678232634,4.63360324417839),.UNSPECIFIED.);
#18=B_SPLINE_CURVE_WITH_KNOTS('',3,(#324,#325,#326,#327,#328,#329,#330,
#331,#332,#333,#334,#335,#336,#337,#338,#339,#340,#341,#342),
 .UNSPECIFIED.,.F.,.F.,(4,2,2,2,3,2,2,2,4),(2.78016194650703,3.01136840835909,
3.24257487021114,3.47472873277693,3.70688259534271,3.9390364579085,4.17119032047429,
4.40239678232634,4.63360324417839),.UNSPECIFIED.);
#19=B_SPLINE_CURVE_WITH_KNOTS('',3,(#344,#345,#346,#347,#348,#349,#350,
#351,#352,#353),.UNSPECIFIED.,.F.,.F.,(4,2,2,2,4),(2.78016194650703,3.01136840835909,
3.24257487021114,3.47472873277692,3.70688259534271),.UNSPECIFIED.);
#20=B_SPLINE_CURVE_WITH_KNOTS('',3,(#354,#355,#356,#357,#358,#359,#360,
#361,#362,#363),.UNSPECIFIED.,.F.,.F.,(4,2,2,2,4),(3.70688259534271,3.9390364579085,
4.17119032047429,4.40239678232634,4.63360324417839),.UNSPECIFIED.);
#21=CONICAL_SURFACE('',#197,10.,0.349065850398865);
#22=FACE_BOUND('',#54,.T.);
#23=FACE_BOUND('',#60,.T.);
#24=FACE_BOUND('',#61,.T.);
#25=PLANE('',#192);
#26=PLANE('',#196);
#27=PLANE('',#200);
#28=LINE('',#261,#33);
#29=LINE('',#269,#34);
#30=LINE('',#275,#35);
#31=LINE('',#279,#36);
#32=LINE('',#365,#37);
#33=VECTOR('',#219,14.);
#34=VECTOR('',#230,14.);
#35=VECTOR('',#237,10.);
#36=VECTOR('',#244,11.);
#37=VECTOR('',#247,6.);
#38=CYLINDRICAL_SURFACE('',#190,14.);
#39=CYLINDRICAL_SURFACE('',#194,14.);
#40=CYLINDRICAL_SURFACE('',#201,11.);
#41=CYLINDRICAL_SURFACE('',#202,6.);
#42=FACE_OUTER_BOUND('',#51,.T.);
#43=FACE_OUTER_BOUND('',#52,.T.);
#44=FACE_OUTER_BOUND('',#53,.T.);
#45=FACE_OUTER_BOUND('',#55,.T.);
#46=FACE_OUTER_BOUND('',#56,.T.);
#47=FACE_OUTER_BOUND('',#57,.T.);
#48=FACE_OUTER_BOUND('',#58,.T.);
#49=FACE_OUTER_BOUND('',#59,.T.);
#50=FACE_OUTER_BOUND('',#62,.T.);
#51=EDGE_LOOP('',(#109,#110,#111,#112,#113,#114));
#52=EDGE_LOOP('',(#115,#116,#117,#118,#119));
#53=EDGE_LOOP('',(#120));
#54=EDGE_LOOP('',(#121));
#55=EDGE_LOOP('',(#122,#123,#124,#125,#126));
#56=EDGE_LOOP('',(#127));
#57=EDGE_LOOP('',(#128,#129,#130,#131));
#58=EDGE_LOOP('',(#132));
#59=EDGE_LOOP('',(#133,#134,#135,#136));
#60=EDGE_LOOP('',(#137,#138,#139));
#61=EDGE_LOOP('',(#140,#141,#142));
#62=EDGE_LOOP('',(#143,#144,#145,#146,#147,#148,#149,#150));
#63=CIRCLE('',#185,14.);
#64=CIRCLE('',#186,14.);
#65=CIRCLE('',#187,3.);
#66=CIRCLE('',#188,14.);
#67=CIRCLE('',#189,14.);
#68=CIRCLE('',#191,14.);
#69=CIRCLE('',#193,11.);
#70=CIRCLE('',#195,14.);
#71=CIRCLE('',#198,11.);
#72=CIRCLE('',#199,9.);
#73=VERTEX_POINT('',#250);
#74=VERTEX_POINT('',#251);
#75=VERTEX_POINT('',#254);
#76=VERTEX_POINT('',#256);
#77=VERTEX_POINT('',#260);
#78=VERTEX_POINT('',#264);
#79=VERTEX_POINT('',#267);
#80=VERTEX_POINT('',#272);
#81=VERTEX_POINT('',#274);
#82=VERTEX_POINT('',#280);
#83=VERTEX_POINT('',#281);
#84=VERTEX_POINT('',#292);
#85=VERTEX_POINT('',#322);
#86=VERTEX_POINT('',#323);
#87=VERTEX_POINT('',#343);
#88=EDGE_CURVE('',#73,#74,#63,.T.);
#89=EDGE_CURVE('',#74,#73,#64,.T.);
#90=EDGE_CURVE('',#74,#75,#65,.T.);
#91=EDGE_CURVE('',#76,#75,#66,.T.);
#92=EDGE_CURVE('',#75,#76,#67,.T.);
#93=EDGE_CURVE('',#73,#77,#28,.T.);
#94=EDGE_CURVE('',#77,#77,#68,.T.);
#95=EDGE_CURVE('',#78,#78,#69,.T.);
#96=EDGE_CURVE('',#79,#79,#70,.T.);
#97=EDGE_CURVE('',#79,#76,#29,.T.);
#98=EDGE_CURVE('',#80,#80,#71,.T.);
#99=EDGE_CURVE('',#80,#81,#30,.T.);
#100=EDGE_CURVE('',#81,#81,#72,.T.);
#101=EDGE_CURVE('',#80,#78,#31,.T.);
#102=EDGE_CURVE('',#82,#83,#15,.T.);
#103=EDGE_CURVE('',#83,#84,#16,.T.);
#104=EDGE_CURVE('',#84,#82,#17,.T.);
#105=EDGE_CURVE('',#85,#86,#18,.T.);
#106=EDGE_CURVE('',#86,#87,#19,.T.);
#107=EDGE_CURVE('',#87,#85,#20,.T.);
#108=EDGE_CURVE('',#83,#87,#32,.T.);
#109=ORIENTED_EDGE('',*,*,#88,.F.);
#110=ORIENTED_EDGE('',*,*,#89,.F.);
#111=ORIENTED_EDGE('',*,*,#90,.T.);
#112=ORIENTED_EDGE('',*,*,#91,.F.);
#113=ORIENTED_EDGE('',*,*,#92,.F.);
#114=ORIENTED_EDGE('',*,*,#90,.F.);
#115=ORIENTED_EDGE('',*,*,#88,.T.);
#116=ORIENTED_EDGE('',*,*,#89,.T.);
#117=ORIENTED_EDGE('',*,*,#93,.T.);
#118=ORIENTED_EDGE('',*,*,#94,.T.);
#119=ORIENTED_EDGE('',*,*,#93,.F.);
#120=ORIENTED_EDGE('',*,*,#94,.F.);
#121=ORIENTED_EDGE('',*,*,#95,.F.);
#122=ORIENTED_EDGE('',*,*,#96,.F.);
#123=ORIENTED_EDGE('',*,*,#97,.T.);
#124=ORIENTED_EDGE('',*,*,#91,.T.);
#125=ORIENTED_EDGE('',*,*,#92,.T.);
#126=ORIENTED_EDGE('',*,*,#97,.F.);
#127=ORIENTED_EDGE('',*,*,#96,.T.);
#128=ORIENTED_EDGE('',*,*,#98,.T.);
#129=ORIENTED_EDGE('',*,*,#99,.T.);
#130=ORIENTED_EDGE('',*,*,#100,.T.);
#131=ORIENTED_EDGE('',*,*,#99,.F.);
#132=ORIENTED_EDGE('',*,*,#100,.F.);
#133=ORIENTED_EDGE('',*,*,#98,.F.);
#134=ORIENTED_EDGE('',*,*,#101,.T.);
#135=ORIENTED_EDGE('',*,*,#95,.T.);
#136=ORIENTED_EDGE('',*,*,#101,.F.);
#137=ORIENTED_EDGE('',*,*,#102,.T.);
#138=ORIENTED_EDGE('',*,*,#103,.T.);
#139=ORIENTED_EDGE('',*,*,#104,.T.);
#140=ORIENTED_EDGE('',*,*,#105,.T.);
#141=ORIENTED_EDGE('',*,*,#106,.T.);
#142=ORIENTED_EDGE('',*,*,#107,.T.);
#143=ORIENTED_EDGE('',*,*,#104,.F.);
#144=ORIENTED_EDGE('',*,*,#103,.F.);
#145=ORIENTED_EDGE('',*,*,#108,.T.);
#146=ORIENTED_EDGE('',*,*,#106,.F.);
#147=ORIENTED_EDGE('',*,*,#105,.F.);
#148=ORIENTED_EDGE('',*,*,#107,.F.);
#149=ORIENTED_EDGE('',*,*,#108,.F.);
#150=ORIENTED_EDGE('',*,*,#102,.F.);
#151=TOROIDAL_SURFACE('',#184,14.,3.);
#152=ADVANCED_FACE('',(#42),#151,.F.);
#153=ADVANCED_FACE('',(#43),#38,.T.);
#154=ADVANCED_FACE('',(#44,#22),#25,.F.);
#155=ADVANCED_FACE('',(#45),#39,.T.);
#156=ADVANCED_FACE('',(#46),#26,.T.);
#157=ADVANCED_FACE('',(#47),#21,.T.);
#158=ADVANCED_FACE('',(#48),#27,.T.);
#159=ADVANCED_FACE('',(#49,#23,#24),#40,.T.);
#160=ADVANCED_FACE('',(#50),#41,.F.);
#161=CLOSED_SHELL('',(#152,#153,#154,#155,#156,#157,#158,#159,#160));
#162=DERIVED_UNIT_ELEMENT(#165,1.);
#163=DERIVED_UNIT_ELEMENT(#371,-3.);
#164=DIMENSIONAL_EXPONENTS(0.,1.,0.,0.,0.,0.,0.);
#165=(
CONVERSION_BASED_UNIT('gram',#167)
MASS_UNIT()
NAMED_UNIT(#164)
);
#166=(
MASS_UNIT()
NAMED_UNIT(*)
SI_UNIT(.KILO.,.GRAM.)
);
#167=MASS_MEASURE_WITH_UNIT(MASS_MEASURE(0.001),#166);
#168=DERIVED_UNIT((#162,#163));
#169=MEASURE_REPRESENTATION_ITEM('density measure',
POSITIVE_RATIO_MEASURE(7.85),#168);
#170=PROPERTY_DEFINITION_REPRESENTATION(#175,#172);
#171=PROPERTY_DEFINITION_REPRESENTATION(#176,#173);
#172=REPRESENTATION('material name',(#174),#368);
#173=REPRESENTATION('density',(#169),#368);
#174=DESCRIPTIVE_REPRESENTATION_ITEM('Steel, Galvanized',
'Steel, Galvanized');
#175=PROPERTY_DEFINITION('material property','material name',#378);
#176=PROPERTY_DEFINITION('material property','density of part',#378);
#177=DATE_TIME_ROLE('creation_date');
#178=APPLIED_DATE_AND_TIME_ASSIGNMENT(#179,#177,(#378));
#179=DATE_AND_TIME(#180,#181);
#180=CALENDAR_DATE(2023,12,6);
#181=LOCAL_TIME(0,0,0.,#182);
#182=COORDINATED_UNIVERSAL_TIME_OFFSET(0,0,.BEHIND.);
#183=AXIS2_PLACEMENT_3D('',#248,#203,#204);
#184=AXIS2_PLACEMENT_3D('',#249,#205,#206);
#185=AXIS2_PLACEMENT_3D('',#252,#207,#208);
#186=AXIS2_PLACEMENT_3D('',#253,#209,#210);
#187=AXIS2_PLACEMENT_3D('',#255,#211,#212);
#188=AXIS2_PLACEMENT_3D('',#257,#213,#214);
#189=AXIS2_PLACEMENT_3D('',#258,#215,#216);
#190=AXIS2_PLACEMENT_3D('',#259,#217,#218);
#191=AXIS2_PLACEMENT_3D('',#262,#220,#221);
#192=AXIS2_PLACEMENT_3D('',#263,#222,#223);
#193=AXIS2_PLACEMENT_3D('',#265,#224,#225);
#194=AXIS2_PLACEMENT_3D('',#266,#226,#227);
#195=AXIS2_PLACEMENT_3D('',#268,#228,#229);
#196=AXIS2_PLACEMENT_3D('',#270,#231,#232);
#197=AXIS2_PLACEMENT_3D('',#271,#233,#234);
#198=AXIS2_PLACEMENT_3D('',#273,#235,#236);
#199=AXIS2_PLACEMENT_3D('',#276,#238,#239);
#200=AXIS2_PLACEMENT_3D('',#277,#240,#241);
#201=AXIS2_PLACEMENT_3D('',#278,#242,#243);
#202=AXIS2_PLACEMENT_3D('',#364,#245,#246);
#203=DIRECTION('axis',(0.,0.,1.));
#204=DIRECTION('refdir',(1.,0.,0.));
#205=DIRECTION('center_axis',(0.,-6.12323399573677E-17,1.));
#206=DIRECTION('ref_axis',(1.,0.,0.));
#207=DIRECTION('center_axis',(0.,0.,1.));
#208=DIRECTION('ref_axis',(-1.,0.,0.));
#209=DIRECTION('center_axis',(0.,0.,1.));
#210=DIRECTION('ref_axis',(-1.,0.,0.));
#211=DIRECTION('center_axis',(-1.30614473485312E-16,1.,6.12323399573677E-17));
#212=DIRECTION('ref_axis',(-1.,-1.30614473485312E-16,0.));
#213=DIRECTION('center_axis',(0.,0.,-1.));
#214=DIRECTION('ref_axis',(-1.,0.,0.));
#215=DIRECTION('center_axis',(0.,0.,-1.));
#216=DIRECTION('ref_axis',(-1.,0.,0.));
#217=DIRECTION('center_axis',(0.,0.,-1.));
#218=DIRECTION('ref_axis',(-1.,0.,0.));
#219=DIRECTION('',(0.,0.,1.));
#220=DIRECTION('center_axis',(0.,0.,-1.));
#221=DIRECTION('ref_axis',(-1.,0.,0.));
#222=DIRECTION('center_axis',(0.,0.,-1.));
#223=DIRECTION('ref_axis',(-1.,0.,0.));
#224=DIRECTION('center_axis',(0.,0.,1.));
#225=DIRECTION('ref_axis',(-0.707106781186548,-0.707106781186548,0.));
#226=DIRECTION('center_axis',(0.,0.,-1.));
#227=DIRECTION('ref_axis',(-1.,0.,0.));
#228=DIRECTION('center_axis',(0.,0.,-1.));
#229=DIRECTION('ref_axis',(-1.,0.,0.));
#230=DIRECTION('',(0.,0.,1.));
#231=DIRECTION('center_axis',(0.,0.,-1.));
#232=DIRECTION('ref_axis',(-1.,0.,0.));
#233=DIRECTION('center_axis',(0.,0.,-1.));
#234=DIRECTION('ref_axis',(-0.707106781186548,0.707106781186548,0.));
#235=DIRECTION('center_axis',(0.,0.,1.));
#236=DIRECTION('ref_axis',(-0.707106781186548,0.707106781186548,0.));
#237=DIRECTION('',(-0.241844762647975,0.241844762647975,0.939692620785909));
#238=DIRECTION('center_axis',(0.,0.,-1.));
#239=DIRECTION('ref_axis',(-0.707106781186547,0.707106781186547,0.));
#240=DIRECTION('center_axis',(0.,0.,1.));
#241=DIRECTION('ref_axis',(1.,0.,0.));
#242=DIRECTION('center_axis',(4.28699979805753E-16,0.,1.));
#243=DIRECTION('ref_axis',(-0.707106781186548,0.707106781186548,0.));
#244=DIRECTION('',(-4.28699979805753E-16,0.,-1.));
#245=DIRECTION('center_axis',(0.,1.,0.));
#246=DIRECTION('ref_axis',(1.,0.,0.));
#247=DIRECTION('',(0.,-1.,0.));
#248=CARTESIAN_POINT('',(0.,0.,0.));
#249=CARTESIAN_POINT('Origin',(5.08090060305772,11.,-30.8999999166205));
#250=CARTESIAN_POINT('',(19.0809006030577,11.,-27.8999999166205));
#251=CARTESIAN_POINT('',(-8.91909939694228,11.,-27.8999999166205));
#252=CARTESIAN_POINT('Origin',(5.08090060305772,11.,-27.8999999166205));
#253=CARTESIAN_POINT('Origin',(5.08090060305772,11.,-27.8999999166205));
#254=CARTESIAN_POINT('',(-8.91909939694228,11.,-33.8999999166205));
#255=CARTESIAN_POINT('Origin',(-8.91909939694229,11.,-30.8999999166205));
#256=CARTESIAN_POINT('',(19.0809006030577,11.,-33.8999999166205));
#257=CARTESIAN_POINT('Origin',(5.08090060305772,11.,-33.8999999166205));
#258=CARTESIAN_POINT('Origin',(5.08090060305772,11.,-33.8999999166205));
#259=CARTESIAN_POINT('Origin',(5.08090060305772,11.,-20.8999999166205));
#260=CARTESIAN_POINT('',(19.0809006030577,11.,-20.8999999166205));
#261=CARTESIAN_POINT('',(19.0809006030577,11.,-20.8999999166205));
#262=CARTESIAN_POINT('Origin',(5.08090060305772,11.,-20.8999999166205));
#263=CARTESIAN_POINT('Origin',(5.08090060305772,11.,-20.8999999166205));
#264=CARTESIAN_POINT('',(12.8590751961097,3.22182540694798,-20.8999999166205));
#265=CARTESIAN_POINT('Origin',(5.08090060305772,11.,-20.8999999166205));
#266=CARTESIAN_POINT('Origin',(5.08090060305772,11.,-20.8999999166205));
#267=CARTESIAN_POINT('',(19.0809006030577,11.,-40.8999999166205));
#268=CARTESIAN_POINT('Origin',(5.08090060305772,11.,-40.8999999166205));
#269=CARTESIAN_POINT('',(19.0809006030577,11.,-20.8999999166205));
#270=CARTESIAN_POINT('Origin',(5.08090060305772,11.,-40.8999999166205));
#271=CARTESIAN_POINT('Origin',(5.0809006030578,11.,178.352522663925));
#272=CARTESIAN_POINT('',(12.8590751961098,3.22182540694798,175.60504524447));
#273=CARTESIAN_POINT('Origin',(5.0809006030578,11.,175.60504524447));
#274=CARTESIAN_POINT('',(11.4448616337367,4.63603896932107,181.10000008338));
#275=CARTESIAN_POINT('',(12.1519684149233,3.92893218813452,178.352522663925));
#276=CARTESIAN_POINT('Origin',(5.0809006030578,11.,181.10000008338));
#277=CARTESIAN_POINT('Origin',(-5.9190993969422,0.,181.10000008338));
#278=CARTESIAN_POINT('Origin',(5.08090060305774,11.,29.6000000833795));
#279=CARTESIAN_POINT('',(12.8590751961098,3.22182540694798,29.6000000833795));
#280=CARTESIAN_POINT('',(5.0809006030578,22.,169.10000008338));
#281=CARTESIAN_POINT('',(-0.919099396942202,20.2195444572929,163.10000008338));
#282=CARTESIAN_POINT('Ctrl Pts',(5.0809006030578,22.,169.10000008338));
#283=CARTESIAN_POINT('Ctrl Pts',(4.31021239688429,22.,169.10000008338));
#284=CARTESIAN_POINT('Ctrl Pts',(3.49893135719592,21.91173351261,168.942608505043));
#285=CARTESIAN_POINT('Ctrl Pts',(2.02477446117556,21.5938023136415,168.324824569766));
#286=CARTESIAN_POINT('Ctrl Pts',(1.36086462198391,21.3673611363678,167.865245476544));
#287=CARTESIAN_POINT('Ctrl Pts',(0.313513764245173,20.9295267842879,166.817894618805));
#288=CARTESIAN_POINT('Ctrl Pts',(-0.144526446801851,20.6861816011387,166.154653155776));
#289=CARTESIAN_POINT('Ctrl Pts',(-0.761021150081541,20.3273343933634,164.683643085285));
#290=CARTESIAN_POINT('Ctrl Pts',(-0.919099396942203,20.2195444572929,163.873846291932));
#291=CARTESIAN_POINT('Ctrl Pts',(-0.919099396942203,20.2195444572929,163.10000008338));
#292=CARTESIAN_POINT('',(5.08090060305779,22.,157.10000008338));
#293=CARTESIAN_POINT('Ctrl Pts',(-0.919099396942202,20.2195444572929,163.10000008338));
#294=CARTESIAN_POINT('Ctrl Pts',(-0.919099396942203,20.2195444572929,162.326153874827));
#295=CARTESIAN_POINT('Ctrl Pts',(-0.761021150081545,20.3273343933634,161.516357081474));
#296=CARTESIAN_POINT('Ctrl Pts',(-0.144526446801823,20.6861816011387,160.045347010983));
#297=CARTESIAN_POINT('Ctrl Pts',(0.313513764245171,20.9295267842879,159.382105547954));
#298=CARTESIAN_POINT('Ctrl Pts',(1.36086462198391,21.3673611363678,158.334754690215));
#299=CARTESIAN_POINT('Ctrl Pts',(2.02477446117555,21.5938023136415,157.875175596993));
#300=CARTESIAN_POINT('Ctrl Pts',(3.49893135719591,21.91173351261,157.257391661716));
#301=CARTESIAN_POINT('Ctrl Pts',(4.31021239688429,22.,157.10000008338));
#302=CARTESIAN_POINT('Ctrl Pts',(5.0809006030578,22.,157.10000008338));
#303=CARTESIAN_POINT('Ctrl Pts',(5.0809006030578,22.,157.10000008338));
#304=CARTESIAN_POINT('Ctrl Pts',(5.8515888092313,22.,157.10000008338));
#305=CARTESIAN_POINT('Ctrl Pts',(6.66286984891968,21.91173351261,157.257391661716));
#306=CARTESIAN_POINT('Ctrl Pts',(8.13702674494004,21.5938023136415,157.875175596993));
#307=CARTESIAN_POINT('Ctrl Pts',(8.80093658413169,21.3673611363678,158.334754690215));
#308=CARTESIAN_POINT('Ctrl Pts',(9.84828744187042,20.9295267842879,159.382105547954));
#309=CARTESIAN_POINT('Ctrl Pts',(10.3063276529174,20.6861816011387,160.045347010983));
#310=CARTESIAN_POINT('Ctrl Pts',(10.9228223561971,20.3273343933634,161.516357081474));
#311=CARTESIAN_POINT('Ctrl Pts',(11.0809006030578,20.2195444572929,162.326153874827));
#312=CARTESIAN_POINT('Ctrl Pts',(11.0809006030578,20.2195444572929,163.10000008338));
#313=CARTESIAN_POINT('Ctrl Pts',(11.0809006030578,20.2195444572929,163.873846291932));
#314=CARTESIAN_POINT('Ctrl Pts',(10.9228223561971,20.3273343933634,164.683643085285));
#315=CARTESIAN_POINT('Ctrl Pts',(10.3063276529174,20.6861816011387,166.154653155776));
#316=CARTESIAN_POINT('Ctrl Pts',(9.84828744187042,20.9295267842879,166.817894618805));
#317=CARTESIAN_POINT('Ctrl Pts',(8.80093658413168,21.3673611363678,167.865245476544));
#318=CARTESIAN_POINT('Ctrl Pts',(8.13702674494006,21.5938023136415,168.324824569766));
#319=CARTESIAN_POINT('Ctrl Pts',(6.66286984891969,21.91173351261,168.942608505043));
#320=CARTESIAN_POINT('Ctrl Pts',(5.8515888092313,22.,169.10000008338));
#321=CARTESIAN_POINT('Ctrl Pts',(5.08090060305779,22.,169.10000008338));
#322=CARTESIAN_POINT('',(5.08090060305778,0.,169.10000008338));
#323=CARTESIAN_POINT('',(5.08090060305777,0.,157.10000008338));
#324=CARTESIAN_POINT('Ctrl Pts',(5.08090060305779,-1.38777878078145E-15,
169.10000008338));
#325=CARTESIAN_POINT('Ctrl Pts',(5.8515888092313,5.26706302254288E-16,169.10000008338));
#326=CARTESIAN_POINT('Ctrl Pts',(6.66286984891967,0.088266487389999,168.942608505043));
#327=CARTESIAN_POINT('Ctrl Pts',(8.13702674494003,0.406197686358506,168.324824569766));
#328=CARTESIAN_POINT('Ctrl Pts',(8.80093658413168,0.63263886363219,167.865245476544));
#329=CARTESIAN_POINT('Ctrl Pts',(9.84828744187042,1.07047321571213,166.817894618805));
#330=CARTESIAN_POINT('Ctrl Pts',(10.3063276529174,1.31381839886134,166.154653155776));
#331=CARTESIAN_POINT('Ctrl Pts',(10.9228223561971,1.67266560663658,164.683643085285));
#332=CARTESIAN_POINT('Ctrl Pts',(11.0809006030578,1.78045554270713,163.873846291932));
#333=CARTESIAN_POINT('Ctrl Pts',(11.0809006030578,1.78045554270713,163.10000008338));
#334=CARTESIAN_POINT('Ctrl Pts',(11.0809006030578,1.78045554270713,162.326153874827));
#335=CARTESIAN_POINT('Ctrl Pts',(10.9228223561971,1.67266560663658,161.516357081474));
#336=CARTESIAN_POINT('Ctrl Pts',(10.3063276529174,1.31381839886134,160.045347010983));
#337=CARTESIAN_POINT('Ctrl Pts',(9.84828744187042,1.07047321571213,159.382105547954));
#338=CARTESIAN_POINT('Ctrl Pts',(8.80093658413169,0.632638863632194,158.334754690215));
#339=CARTESIAN_POINT('Ctrl Pts',(8.13702674494004,0.40619768635851,157.875175596993));
#340=CARTESIAN_POINT('Ctrl Pts',(6.66286984891969,0.0882664873900004,157.257391661716));
#341=CARTESIAN_POINT('Ctrl Pts',(5.8515888092313,1.41556019337039E-15,157.10000008338));
#342=CARTESIAN_POINT('Ctrl Pts',(5.0809006030578,-7.50267903359969E-16,
157.10000008338));
#343=CARTESIAN_POINT('',(-0.919099396942203,1.78045554270711,163.10000008338));
#344=CARTESIAN_POINT('Ctrl Pts',(5.0809006030578,1.50920942409982E-15,157.10000008338));
#345=CARTESIAN_POINT('Ctrl Pts',(4.3102123968843,-9.40048028498955E-16,
157.10000008338));
#346=CARTESIAN_POINT('Ctrl Pts',(3.49893135719591,0.0882664873899968,157.257391661716));
#347=CARTESIAN_POINT('Ctrl Pts',(2.02477446117555,0.406197686358503,157.875175596993));
#348=CARTESIAN_POINT('Ctrl Pts',(1.36086462198391,0.632638863632183,158.334754690215));
#349=CARTESIAN_POINT('Ctrl Pts',(0.313513764245172,1.07047321571211,159.382105547954));
#350=CARTESIAN_POINT('Ctrl Pts',(-0.144526446801816,1.31381839886132,160.045347010983));
#351=CARTESIAN_POINT('Ctrl Pts',(-0.761021150081548,1.67266560663657,161.516357081474));
#352=CARTESIAN_POINT('Ctrl Pts',(-0.919099396942202,1.78045554270711,162.326153874827));
#353=CARTESIAN_POINT('Ctrl Pts',(-0.919099396942202,1.78045554270711,163.10000008338));
#354=CARTESIAN_POINT('Ctrl Pts',(-0.919099396942203,1.78045554270711,163.10000008338));
#355=CARTESIAN_POINT('Ctrl Pts',(-0.919099396942204,1.78045554270711,163.873846291932));
#356=CARTESIAN_POINT('Ctrl Pts',(-0.761021150081545,1.67266560663657,164.683643085285));
#357=CARTESIAN_POINT('Ctrl Pts',(-0.144526446801822,1.31381839886132,166.154653155776));
#358=CARTESIAN_POINT('Ctrl Pts',(0.313513764245173,1.07047321571212,166.817894618805));
#359=CARTESIAN_POINT('Ctrl Pts',(1.36086462198391,0.632638863632184,167.865245476544));
#360=CARTESIAN_POINT('Ctrl Pts',(2.02477446117554,0.406197686358508,168.324824569766));
#361=CARTESIAN_POINT('Ctrl Pts',(3.4989313571959,0.0882664873899975,168.942608505043));
#362=CARTESIAN_POINT('Ctrl Pts',(4.31021239688429,-1.17520577573421E-15,
169.10000008338));
#363=CARTESIAN_POINT('Ctrl Pts',(5.0809006030578,7.28583859910259E-16,169.10000008338));
#364=CARTESIAN_POINT('Origin',(5.0809006030578,-182.381995293128,163.10000008338));
#365=CARTESIAN_POINT('',(-0.919099396942203,-182.381995293128,163.10000008338));
#366=UNCERTAINTY_MEASURE_WITH_UNIT(LENGTH_MEASURE(0.01),#370,
'DISTANCE_ACCURACY_VALUE',
'Maximum model space distance between geometric entities at asserted c
onnectivities');
#367=UNCERTAINTY_MEASURE_WITH_UNIT(LENGTH_MEASURE(0.01),#370,
'DISTANCE_ACCURACY_VALUE',
'Maximum model space distance between geometric entities at asserted c
onnectivities');
#368=(
GEOMETRIC_REPRESENTATION_CONTEXT(3)
GLOBAL_UNCERTAINTY_ASSIGNED_CONTEXT((#366))
GLOBAL_UNIT_ASSIGNED_CONTEXT((#370,#372,#373))
REPRESENTATION_CONTEXT('','3D')
);
#369=(
GEOMETRIC_REPRESENTATION_CONTEXT(3)
GLOBAL_UNCERTAINTY_ASSIGNED_CONTEXT((#367))
GLOBAL_UNIT_ASSIGNED_CONTEXT((#370,#372,#373))
REPRESENTATION_CONTEXT('','3D')
);
#370=(
LENGTH_UNIT()
NAMED_UNIT(*)
SI_UNIT(.MILLI.,.METRE.)
);
#371=(
LENGTH_UNIT()
NAMED_UNIT(*)
SI_UNIT(.CENTI.,.METRE.)
);
#372=(
NAMED_UNIT(*)
PLANE_ANGLE_UNIT()
SI_UNIT($,.RADIAN.)
);
#373=(
NAMED_UNIT(*)
SI_UNIT($,.STERADIAN.)
SOLID_ANGLE_UNIT()
);
#374=SHAPE_DEFINITION_REPRESENTATION(#375,#376);
#375=PRODUCT_DEFINITION_SHAPE('',$,#378);
#376=SHAPE_REPRESENTATION('',(#183),#368);
#377=PRODUCT_DEFINITION_CONTEXT('part definition',#382,'design');
#378=PRODUCT_DEFINITION('A09075','A09073',#379,#377);
#379=PRODUCT_DEFINITION_FORMATION('',$,#384);
#380=PRODUCT_RELATED_PRODUCT_CATEGORY('A09073','A09073',(#384));
#381=APPLICATION_PROTOCOL_DEFINITION('international standard',
'automotive_design',2009,#382);
#382=APPLICATION_CONTEXT(
'Core Data for Automotive Mechanical Design Process');
#383=PRODUCT_CONTEXT('part definition',#382,'mechanical');
#384=PRODUCT('A09075','A09073',$,(#383));
#385=PRESENTATION_STYLE_ASSIGNMENT((#386));
#386=SURFACE_STYLE_USAGE(.BOTH.,#389);
#387=SURFACE_STYLE_RENDERING_WITH_PROPERTIES($,#393,(#388));
#388=SURFACE_STYLE_TRANSPARENT(0.);
#389=SURFACE_SIDE_STYLE('',(#390,#387));
#390=SURFACE_STYLE_FILL_AREA(#391);
#391=FILL_AREA_STYLE('',(#392));
#392=FILL_AREA_STYLE_COLOUR('',#393);
#393=COLOUR_RGB('',0.745098039215686,0.737254901960784,0.729411764705882);
ENDSEC;
END-ISO-10303-21;
