ISO-10303-21;
HEADER;
/* Generated by software containing ST-Developer
 * from STEP Tools, Inc. (www.steptools.com) 
 */

FILE_DESCRIPTION(
/* description */ (''),
/* implementation_level */ '2;1');

FILE_NAME(
/* name */ 'A00773.stp',
/* time_stamp */ '2023-06-21T13:21:37+02:00',
/* author */ ('msn'),
/* organization */ (''),
/* preprocessor_version */ 'ST-DEVELOPER v19.2',
/* originating_system */ 'Autodesk Inventor 2024',
/* authorisation */ '');

FILE_SCHEMA (('AUTOMOTIVE_DESIGN { 1 0 10303 214 3 1 1 }'));
ENDSEC;

DATA;
#10=MECHANICAL_DESIGN_GEOMETRIC_PRESENTATION_REPRESENTATION('',(#13),#298);
#11=SHAPE_REPRESENTATION_RELATIONSHIP('SRR','None',#305,#12);
#12=ADVANCED_BREP_SHAPE_REPRESENTATION('',(#14),#297);
#13=STYLED_ITEM('',(#314),#14);
#14=MANIFOLD_SOLID_BREP('Solid1',#124);
#15=PLANE('',#152);
#16=PLANE('',#153);
#17=PLANE('',#157);
#18=FACE_BOUND('',#39,.T.);
#19=FACE_BOUND('',#40,.T.);
#20=FACE_BOUND('',#43,.T.);
#21=B_SPLINE_CURVE_WITH_KNOTS('',3,(#202,#203,#204,#205,#206,#207,#208,
#209,#210,#211),.UNSPECIFIED.,.F.,.F.,(4,2,2,2,4),(1.14105062784713,1.23610862028338,
1.33116661271963,1.42628372492457,1.5214008371295),.UNSPECIFIED.);
#22=B_SPLINE_CURVE_WITH_KNOTS('',3,(#213,#214,#215,#216,#217,#218,#219,
#220,#221,#222),.UNSPECIFIED.,.F.,.F.,(4,2,2,2,4),(1.5214008371295,1.61651794933444,
1.71163506153938,1.80669305397563,1.90175104641188),.UNSPECIFIED.);
#23=B_SPLINE_CURVE_WITH_KNOTS('',3,(#223,#224,#225,#226,#227,#228,#229,
#230,#231,#232,#233,#234,#235,#236,#237,#238,#239,#240,#241),
 .UNSPECIFIED.,.F.,.F.,(4,2,2,2,3,2,2,2,4),(1.14105062784713,1.23610862028338,
1.33116661271963,1.42628372492457,1.5214008371295,1.61651794933444,1.71163506153938,
1.80669305397563,1.90175104641188),.UNSPECIFIED.);
#24=B_SPLINE_CURVE_WITH_KNOTS('',3,(#244,#245,#246,#247,#248,#249,#250,
#251,#252,#253,#254,#255,#256,#257,#258,#259,#260,#261,#262),
 .UNSPECIFIED.,.F.,.F.,(4,2,2,2,3,2,2,2,4),(1.14105062784713,1.23610862028338,
1.33116661271963,1.42628372492457,1.5214008371295,1.61651794933444,1.71163506153938,
1.80669305397563,1.90175104641188),.UNSPECIFIED.);
#25=B_SPLINE_CURVE_WITH_KNOTS('',3,(#264,#265,#266,#267,#268,#269,#270,
#271,#272,#273),.UNSPECIFIED.,.F.,.F.,(4,2,2,2,4),(1.14105062784713,1.23610862028338,
1.33116661271963,1.42628372492457,1.5214008371295),.UNSPECIFIED.);
#26=B_SPLINE_CURVE_WITH_KNOTS('',3,(#274,#275,#276,#277,#278,#279,#280,
#281,#282,#283),.UNSPECIFIED.,.F.,.F.,(4,2,2,2,4),(1.5214008371295,1.61651794933444,
1.71163506153938,1.80669305397563,1.90175104641188),.UNSPECIFIED.);
#27=CYLINDRICAL_SURFACE('',#150,7.);
#28=CYLINDRICAL_SURFACE('',#155,8.5);
#29=CYLINDRICAL_SURFACE('',#158,2.5);
#30=FACE_OUTER_BOUND('',#37,.T.);
#31=FACE_OUTER_BOUND('',#38,.T.);
#32=FACE_OUTER_BOUND('',#41,.T.);
#33=FACE_OUTER_BOUND('',#42,.T.);
#34=FACE_OUTER_BOUND('',#44,.T.);
#35=FACE_OUTER_BOUND('',#45,.T.);
#36=FACE_OUTER_BOUND('',#46,.T.);
#37=EDGE_LOOP('',(#86,#87,#88,#89));
#38=EDGE_LOOP('',(#90,#91,#92,#93));
#39=EDGE_LOOP('',(#94,#95,#96));
#40=EDGE_LOOP('',(#97,#98,#99));
#41=EDGE_LOOP('',(#100));
#42=EDGE_LOOP('',(#101));
#43=EDGE_LOOP('',(#102));
#44=EDGE_LOOP('',(#103,#104,#105,#106));
#45=EDGE_LOOP('',(#107));
#46=EDGE_LOOP('',(#108,#109,#110,#111,#112,#113,#114,#115));
#47=LINE('',#194,#51);
#48=LINE('',#199,#52);
#49=LINE('',#291,#53);
#50=LINE('',#294,#54);
#51=VECTOR('',#165,6.5);
#52=VECTOR('',#172,7.);
#53=VECTOR('',#183,8.5);
#54=VECTOR('',#188,2.5);
#55=CIRCLE('',#148,7.);
#56=CIRCLE('',#149,6.);
#57=CIRCLE('',#151,7.);
#58=CIRCLE('',#154,8.5);
#59=CIRCLE('',#156,8.5);
#60=VERTEX_POINT('',#191);
#61=VERTEX_POINT('',#193);
#62=VERTEX_POINT('',#197);
#63=VERTEX_POINT('',#200);
#64=VERTEX_POINT('',#201);
#65=VERTEX_POINT('',#212);
#66=VERTEX_POINT('',#242);
#67=VERTEX_POINT('',#243);
#68=VERTEX_POINT('',#263);
#69=VERTEX_POINT('',#286);
#70=VERTEX_POINT('',#289);
#71=EDGE_CURVE('',#60,#60,#55,.T.);
#72=EDGE_CURVE('',#60,#61,#47,.T.);
#73=EDGE_CURVE('',#61,#61,#56,.T.);
#74=EDGE_CURVE('',#62,#62,#57,.T.);
#75=EDGE_CURVE('',#62,#60,#48,.T.);
#76=EDGE_CURVE('',#63,#64,#21,.T.);
#77=EDGE_CURVE('',#64,#65,#22,.T.);
#78=EDGE_CURVE('',#65,#63,#23,.T.);
#79=EDGE_CURVE('',#66,#67,#24,.T.);
#80=EDGE_CURVE('',#67,#68,#25,.T.);
#81=EDGE_CURVE('',#68,#66,#26,.T.);
#82=EDGE_CURVE('',#69,#69,#58,.T.);
#83=EDGE_CURVE('',#70,#70,#59,.T.);
#84=EDGE_CURVE('',#70,#69,#49,.T.);
#85=EDGE_CURVE('',#64,#68,#50,.T.);
#86=ORIENTED_EDGE('',*,*,#71,.T.);
#87=ORIENTED_EDGE('',*,*,#72,.T.);
#88=ORIENTED_EDGE('',*,*,#73,.T.);
#89=ORIENTED_EDGE('',*,*,#72,.F.);
#90=ORIENTED_EDGE('',*,*,#74,.T.);
#91=ORIENTED_EDGE('',*,*,#75,.T.);
#92=ORIENTED_EDGE('',*,*,#71,.F.);
#93=ORIENTED_EDGE('',*,*,#75,.F.);
#94=ORIENTED_EDGE('',*,*,#76,.T.);
#95=ORIENTED_EDGE('',*,*,#77,.T.);
#96=ORIENTED_EDGE('',*,*,#78,.T.);
#97=ORIENTED_EDGE('',*,*,#79,.T.);
#98=ORIENTED_EDGE('',*,*,#80,.T.);
#99=ORIENTED_EDGE('',*,*,#81,.T.);
#100=ORIENTED_EDGE('',*,*,#73,.F.);
#101=ORIENTED_EDGE('',*,*,#82,.F.);
#102=ORIENTED_EDGE('',*,*,#74,.F.);
#103=ORIENTED_EDGE('',*,*,#83,.F.);
#104=ORIENTED_EDGE('',*,*,#84,.T.);
#105=ORIENTED_EDGE('',*,*,#82,.T.);
#106=ORIENTED_EDGE('',*,*,#84,.F.);
#107=ORIENTED_EDGE('',*,*,#83,.T.);
#108=ORIENTED_EDGE('',*,*,#78,.F.);
#109=ORIENTED_EDGE('',*,*,#77,.F.);
#110=ORIENTED_EDGE('',*,*,#85,.T.);
#111=ORIENTED_EDGE('',*,*,#80,.F.);
#112=ORIENTED_EDGE('',*,*,#79,.F.);
#113=ORIENTED_EDGE('',*,*,#81,.F.);
#114=ORIENTED_EDGE('',*,*,#85,.F.);
#115=ORIENTED_EDGE('',*,*,#76,.F.);
#116=CONICAL_SURFACE('',#147,6.5,0.610865238198016);
#117=ADVANCED_FACE('',(#30),#116,.T.);
#118=ADVANCED_FACE('',(#31,#18,#19),#27,.T.);
#119=ADVANCED_FACE('',(#32),#15,.T.);
#120=ADVANCED_FACE('',(#33,#20),#16,.F.);
#121=ADVANCED_FACE('',(#34),#28,.T.);
#122=ADVANCED_FACE('',(#35),#17,.T.);
#123=ADVANCED_FACE('',(#36),#29,.F.);
#124=CLOSED_SHELL('',(#117,#118,#119,#120,#121,#122,#123));
#125=DERIVED_UNIT_ELEMENT(#128,1.);
#126=DERIVED_UNIT_ELEMENT(#300,-3.);
#127=DIMENSIONAL_EXPONENTS(0.,1.,0.,0.,0.,0.,0.);
#128=(
CONVERSION_BASED_UNIT('gram',#130)
MASS_UNIT()
NAMED_UNIT(#127)
);
#129=(
MASS_UNIT()
NAMED_UNIT(*)
SI_UNIT(.KILO.,.GRAM.)
);
#130=MASS_MEASURE_WITH_UNIT(MASS_MEASURE(0.001),#129);
#131=DERIVED_UNIT((#125,#126));
#132=MEASURE_REPRESENTATION_ITEM('density measure',
POSITIVE_RATIO_MEASURE(7.85),#131);
#133=PROPERTY_DEFINITION_REPRESENTATION(#138,#135);
#134=PROPERTY_DEFINITION_REPRESENTATION(#139,#136);
#135=REPRESENTATION('material name',(#137),#297);
#136=REPRESENTATION('density',(#132),#297);
#137=DESCRIPTIVE_REPRESENTATION_ITEM('Steel, Galvanized',
'Steel, Galvanized');
#138=PROPERTY_DEFINITION('material property','material name',#307);
#139=PROPERTY_DEFINITION('material property','density of part',#307);
#140=DATE_TIME_ROLE('creation_date');
#141=APPLIED_DATE_AND_TIME_ASSIGNMENT(#142,#140,(#307));
#142=DATE_AND_TIME(#143,#144);
#143=CALENDAR_DATE(2023,12,6);
#144=LOCAL_TIME(0,0,0.,#145);
#145=COORDINATED_UNIVERSAL_TIME_OFFSET(0,0,.BEHIND.);
#146=AXIS2_PLACEMENT_3D('',#189,#159,#160);
#147=AXIS2_PLACEMENT_3D('',#190,#161,#162);
#148=AXIS2_PLACEMENT_3D('',#192,#163,#164);
#149=AXIS2_PLACEMENT_3D('',#195,#166,#167);
#150=AXIS2_PLACEMENT_3D('',#196,#168,#169);
#151=AXIS2_PLACEMENT_3D('',#198,#170,#171);
#152=AXIS2_PLACEMENT_3D('',#284,#173,#174);
#153=AXIS2_PLACEMENT_3D('',#285,#175,#176);
#154=AXIS2_PLACEMENT_3D('',#287,#177,#178);
#155=AXIS2_PLACEMENT_3D('',#288,#179,#180);
#156=AXIS2_PLACEMENT_3D('',#290,#181,#182);
#157=AXIS2_PLACEMENT_3D('',#292,#184,#185);
#158=AXIS2_PLACEMENT_3D('',#293,#186,#187);
#159=DIRECTION('axis',(0.,0.,1.));
#160=DIRECTION('refdir',(1.,0.,0.));
#161=DIRECTION('center_axis',(0.,0.,1.));
#162=DIRECTION('ref_axis',(-0.707106781186548,0.707106781186547,0.));
#163=DIRECTION('center_axis',(0.,0.,-1.));
#164=DIRECTION('ref_axis',(-0.707106781186548,0.707106781186547,0.));
#165=DIRECTION('',(-0.405579787672639,0.405579787672639,-0.819152044288991));
#166=DIRECTION('center_axis',(0.,0.,1.));
#167=DIRECTION('ref_axis',(-0.707106781186548,0.707106781186548,0.));
#168=DIRECTION('center_axis',(4.29763751467802E-16,0.,1.));
#169=DIRECTION('ref_axis',(-0.707106781186548,0.707106781186547,0.));
#170=DIRECTION('center_axis',(0.,0.,-1.));
#171=DIRECTION('ref_axis',(0.707106781186548,-0.707106781186548,-2.24298922669111E-16));
#172=DIRECTION('',(-4.29763751467802E-16,0.,-1.));
#173=DIRECTION('center_axis',(0.,0.,-1.));
#174=DIRECTION('ref_axis',(-1.,0.,0.));
#175=DIRECTION('center_axis',(0.,0.,1.));
#176=DIRECTION('ref_axis',(1.,0.,0.));
#177=DIRECTION('center_axis',(0.,0.,1.));
#178=DIRECTION('ref_axis',(1.,0.,0.));
#179=DIRECTION('center_axis',(0.,0.,1.));
#180=DIRECTION('ref_axis',(1.,0.,0.));
#181=DIRECTION('center_axis',(0.,0.,1.));
#182=DIRECTION('ref_axis',(1.,0.,0.));
#183=DIRECTION('',(0.,0.,-1.));
#184=DIRECTION('center_axis',(0.,0.,1.));
#185=DIRECTION('ref_axis',(1.,0.,0.));
#186=DIRECTION('center_axis',(0.,1.,0.));
#187=DIRECTION('ref_axis',(1.,0.,0.));
#188=DIRECTION('',(0.,-1.,0.));
#189=CARTESIAN_POINT('',(0.,0.,0.));
#190=CARTESIAN_POINT('Origin',(-2.08090618509514,7.,-24.8166703331985));
#191=CARTESIAN_POINT('',(2.8688412832107,2.05025253169417,-24.1025963298275));
#192=CARTESIAN_POINT('Origin',(-2.08090618509514,7.,-24.1025963298275));
#193=CARTESIAN_POINT('',(2.16173450202415,2.75735931288072,-25.5307443365696));
#194=CARTESIAN_POINT('',(2.51528789261742,2.40380592228744,-24.8166703331985));
#195=CARTESIAN_POINT('Origin',(-2.08090618509514,7.,-25.5307443365696));
#196=CARTESIAN_POINT('Origin',(-2.08090618509513,7.,-13.9057443365696));
#197=CARTESIAN_POINT('',(2.86884128321072,2.05025253169417,20.9692556634304));
#198=CARTESIAN_POINT('Origin',(-2.08090618509512,7.,20.9692556634304));
#199=CARTESIAN_POINT('',(2.8688412832107,2.05025253169417,-13.9057443365696));
#200=CARTESIAN_POINT('',(-2.08090618509513,14.,-17.5307443365696));
#201=CARTESIAN_POINT('',(-4.58090618509514,13.538348415311,-20.0307443365696));
#202=CARTESIAN_POINT('Ctrl Pts',(-2.08090618509514,14.,-17.5307443365696));
#203=CARTESIAN_POINT('Ctrl Pts',(-2.39776615988264,14.,-17.5307443365696));
#204=CARTESIAN_POINT('Ctrl Pts',(-2.7338861415198,13.976392009239,-17.5946374444424));
#205=CARTESIAN_POINT('Ctrl Pts',(-3.34906901095605,13.8911676322435,-17.8506611968554));
#206=CARTESIAN_POINT('Ctrl Pts',(-3.62834014833268,13.8306150342907,-18.0426443938744));
#207=CARTESIAN_POINT('Ctrl Pts',(-4.06914316030125,13.7155663846591,-18.483447405843));
#208=CARTESIAN_POINT('Ctrl Pts',(-4.26102136989067,13.6532301839519,-18.7626648502546));
#209=CARTESIAN_POINT('Ctrl Pts',(-4.51696616816768,13.5638393407034,-19.3776453253051));
#210=CARTESIAN_POINT('Ctrl Pts',(-4.58090618509514,13.538348415311,-19.7136872958865));
#211=CARTESIAN_POINT('Ctrl Pts',(-4.58090618509514,13.538348415311,-20.0307443365696));
#212=CARTESIAN_POINT('',(-2.08090618509513,14.,-22.5307443365696));
#213=CARTESIAN_POINT('Ctrl Pts',(-4.58090618509514,13.538348415311,-20.0307443365696));
#214=CARTESIAN_POINT('Ctrl Pts',(-4.58090618509514,13.538348415311,-20.3478013772527));
#215=CARTESIAN_POINT('Ctrl Pts',(-4.51696616816768,13.5638393407034,-20.6838433478341));
#216=CARTESIAN_POINT('Ctrl Pts',(-4.26102136989067,13.6532301839519,-21.2988238228846));
#217=CARTESIAN_POINT('Ctrl Pts',(-4.06914316030125,13.7155663846591,-21.5780412672962));
#218=CARTESIAN_POINT('Ctrl Pts',(-3.62834014833268,13.8306150342907,-22.0188442792648));
#219=CARTESIAN_POINT('Ctrl Pts',(-3.34906901095605,13.8911676322435,-22.2108274762838));
#220=CARTESIAN_POINT('Ctrl Pts',(-2.73388614151979,13.976392009239,-22.4668512286968));
#221=CARTESIAN_POINT('Ctrl Pts',(-2.39776615988264,14.,-22.5307443365696));
#222=CARTESIAN_POINT('Ctrl Pts',(-2.08090618509514,14.,-22.5307443365696));
#223=CARTESIAN_POINT('Ctrl Pts',(-2.08090618509514,14.,-22.5307443365696));
#224=CARTESIAN_POINT('Ctrl Pts',(-1.76404621030763,14.,-22.5307443365696));
#225=CARTESIAN_POINT('Ctrl Pts',(-1.42792622867048,13.976392009239,-22.4668512286968));
#226=CARTESIAN_POINT('Ctrl Pts',(-0.812743359234226,13.8911676322435,-22.2108274762838));
#227=CARTESIAN_POINT('Ctrl Pts',(-0.533472221857592,13.8306150342907,-22.0188442792648));
#228=CARTESIAN_POINT('Ctrl Pts',(-0.0926692098890194,13.7155663846591,-21.5780412672962));
#229=CARTESIAN_POINT('Ctrl Pts',(0.0992089997003937,13.6532301839519,-21.2988238228846));
#230=CARTESIAN_POINT('Ctrl Pts',(0.355153797977407,13.5638393407034,-20.6838433478341));
#231=CARTESIAN_POINT('Ctrl Pts',(0.419093814904864,13.538348415311,-20.3478013772527));
#232=CARTESIAN_POINT('Ctrl Pts',(0.419093814904864,13.538348415311,-20.0307443365696));
#233=CARTESIAN_POINT('Ctrl Pts',(0.419093814904864,13.538348415311,-19.7136872958865));
#234=CARTESIAN_POINT('Ctrl Pts',(0.355153797977406,13.5638393407034,-19.3776453253051));
#235=CARTESIAN_POINT('Ctrl Pts',(0.099208999700394,13.6532301839519,-18.7626648502546));
#236=CARTESIAN_POINT('Ctrl Pts',(-0.0926692098890199,13.7155663846591,-18.483447405843));
#237=CARTESIAN_POINT('Ctrl Pts',(-0.533472221857593,13.8306150342907,-18.0426443938744));
#238=CARTESIAN_POINT('Ctrl Pts',(-0.812743359234222,13.8911676322435,-17.8506611968554));
#239=CARTESIAN_POINT('Ctrl Pts',(-1.42792622867048,13.976392009239,-17.5946374444424));
#240=CARTESIAN_POINT('Ctrl Pts',(-1.76404621030764,14.,-17.5307443365696));
#241=CARTESIAN_POINT('Ctrl Pts',(-2.08090618509514,14.,-17.5307443365696));
#242=CARTESIAN_POINT('',(-2.08090618509513,0.,-17.5307443365696));
#243=CARTESIAN_POINT('',(-2.08090618509514,0.,-22.5307443365696));
#244=CARTESIAN_POINT('Ctrl Pts',(-2.08090618509514,5.85469173142172E-16,
-17.5307443365696));
#245=CARTESIAN_POINT('Ctrl Pts',(-1.76404621030764,4.53549708295461E-16,
-17.5307443365696));
#246=CARTESIAN_POINT('Ctrl Pts',(-1.42792622867048,0.0236079907610401,-17.5946374444424));
#247=CARTESIAN_POINT('Ctrl Pts',(-0.812743359234222,0.108832367756538,-17.8506611968554));
#248=CARTESIAN_POINT('Ctrl Pts',(-0.533472221857593,0.169384965709277,-18.0426443938744));
#249=CARTESIAN_POINT('Ctrl Pts',(-0.0926692098890197,0.284433615340878,
-18.483447405843));
#250=CARTESIAN_POINT('Ctrl Pts',(0.0992089997003947,0.346769816048099,-18.7626648502546));
#251=CARTESIAN_POINT('Ctrl Pts',(0.355153797977405,0.436160659296569,-19.3776453253051));
#252=CARTESIAN_POINT('Ctrl Pts',(0.419093814904864,0.461651584688989,-19.7136872958865));
#253=CARTESIAN_POINT('Ctrl Pts',(0.419093814904864,0.461651584688989,-20.0307443365696));
#254=CARTESIAN_POINT('Ctrl Pts',(0.419093814904864,0.461651584688989,-20.3478013772527));
#255=CARTESIAN_POINT('Ctrl Pts',(0.355153797977407,0.43616065929657,-20.6838433478341));
#256=CARTESIAN_POINT('Ctrl Pts',(0.099208999700394,0.3467698160481,-21.2988238228846));
#257=CARTESIAN_POINT('Ctrl Pts',(-0.0926692098890194,0.284433615340878,
-21.5780412672962));
#258=CARTESIAN_POINT('Ctrl Pts',(-0.533472221857592,0.169384965709277,-22.0188442792648));
#259=CARTESIAN_POINT('Ctrl Pts',(-0.812743359234219,0.108832367756539,-22.2108274762838));
#260=CARTESIAN_POINT('Ctrl Pts',(-1.42792622867047,0.0236079907610403,-22.4668512286968));
#261=CARTESIAN_POINT('Ctrl Pts',(-1.76404621030763,4.11391757495008E-16,
-22.5307443365696));
#262=CARTESIAN_POINT('Ctrl Pts',(-2.08090618509514,4.55364912443912E-16,
-22.5307443365696));
#263=CARTESIAN_POINT('',(-4.58090618509514,0.461651584688991,-20.0307443365696));
#264=CARTESIAN_POINT('Ctrl Pts',(-2.08090618509514,4.33680868994202E-16,
-22.5307443365696));
#265=CARTESIAN_POINT('Ctrl Pts',(-2.39776615988264,4.90845970427777E-16,
-22.5307443365696));
#266=CARTESIAN_POINT('Ctrl Pts',(-2.73388614151979,0.0236079907610412,-22.4668512286968));
#267=CARTESIAN_POINT('Ctrl Pts',(-3.34906901095605,0.108832367756539,-22.2108274762838));
#268=CARTESIAN_POINT('Ctrl Pts',(-3.62834014833268,0.169384965709278,-22.0188442792648));
#269=CARTESIAN_POINT('Ctrl Pts',(-4.06914316030125,0.284433615340879,-21.5780412672962));
#270=CARTESIAN_POINT('Ctrl Pts',(-4.26102136989067,0.346769816048101,-21.2988238228846));
#271=CARTESIAN_POINT('Ctrl Pts',(-4.51696616816768,0.436160659296572,-20.6838433478341));
#272=CARTESIAN_POINT('Ctrl Pts',(-4.58090618509514,0.461651584688991,-20.3478013772527));
#273=CARTESIAN_POINT('Ctrl Pts',(-4.58090618509514,0.461651584688991,-20.0307443365696));
#274=CARTESIAN_POINT('Ctrl Pts',(-4.58090618509514,0.461651584688991,-20.0307443365696));
#275=CARTESIAN_POINT('Ctrl Pts',(-4.58090618509514,0.461651584688991,-19.7136872958865));
#276=CARTESIAN_POINT('Ctrl Pts',(-4.51696616816768,0.436160659296571,-19.3776453253051));
#277=CARTESIAN_POINT('Ctrl Pts',(-4.26102136989067,0.346769816048101,-18.7626648502546));
#278=CARTESIAN_POINT('Ctrl Pts',(-4.06914316030125,0.284433615340879,-18.483447405843));
#279=CARTESIAN_POINT('Ctrl Pts',(-3.62834014833268,0.169384965709278,-18.0426443938744));
#280=CARTESIAN_POINT('Ctrl Pts',(-3.34906901095605,0.108832367756539,-17.8506611968554));
#281=CARTESIAN_POINT('Ctrl Pts',(-2.73388614151979,0.02360799076104,-17.5946374444424));
#282=CARTESIAN_POINT('Ctrl Pts',(-2.39776615988264,5.92528788054791E-16,
-17.5307443365696));
#283=CARTESIAN_POINT('Ctrl Pts',(-2.08090618509514,3.94649590784724E-16,
-17.5307443365696));
#284=CARTESIAN_POINT('Origin',(4.91909381490486,0.,-25.5307443365696));
#285=CARTESIAN_POINT('Origin',(-2.08090618509512,7.,20.9692556634304));
#286=CARTESIAN_POINT('',(-10.5809061850951,7.,20.9692556634304));
#287=CARTESIAN_POINT('Origin',(-2.08090618509512,7.,20.9692556634304));
#288=CARTESIAN_POINT('Origin',(-2.08090618509512,7.,20.9692556634304));
#289=CARTESIAN_POINT('',(-10.5809061850951,7.,24.4692556634304));
#290=CARTESIAN_POINT('Origin',(-2.08090618509512,7.,24.4692556634304));
#291=CARTESIAN_POINT('',(-10.5809061850951,7.,20.9692556634304));
#292=CARTESIAN_POINT('Origin',(-2.08090618509512,7.,24.4692556634304));
#293=CARTESIAN_POINT('Origin',(-2.08090618509514,-36.5395884431205,-20.0307443365696));
#294=CARTESIAN_POINT('',(-4.58090618509514,-36.5395884431205,-20.0307443365696));
#295=UNCERTAINTY_MEASURE_WITH_UNIT(LENGTH_MEASURE(0.01),#299,
'DISTANCE_ACCURACY_VALUE',
'Maximum model space distance between geometric entities at asserted c
onnectivities');
#296=UNCERTAINTY_MEASURE_WITH_UNIT(LENGTH_MEASURE(0.01),#299,
'DISTANCE_ACCURACY_VALUE',
'Maximum model space distance between geometric entities at asserted c
onnectivities');
#297=(
GEOMETRIC_REPRESENTATION_CONTEXT(3)
GLOBAL_UNCERTAINTY_ASSIGNED_CONTEXT((#295))
GLOBAL_UNIT_ASSIGNED_CONTEXT((#299,#301,#302))
REPRESENTATION_CONTEXT('','3D')
);
#298=(
GEOMETRIC_REPRESENTATION_CONTEXT(3)
GLOBAL_UNCERTAINTY_ASSIGNED_CONTEXT((#296))
GLOBAL_UNIT_ASSIGNED_CONTEXT((#299,#301,#302))
REPRESENTATION_CONTEXT('','3D')
);
#299=(
LENGTH_UNIT()
NAMED_UNIT(*)
SI_UNIT(.MILLI.,.METRE.)
);
#300=(
LENGTH_UNIT()
NAMED_UNIT(*)
SI_UNIT(.CENTI.,.METRE.)
);
#301=(
NAMED_UNIT(*)
PLANE_ANGLE_UNIT()
SI_UNIT($,.RADIAN.)
);
#302=(
NAMED_UNIT(*)
SI_UNIT($,.STERADIAN.)
SOLID_ANGLE_UNIT()
);
#303=SHAPE_DEFINITION_REPRESENTATION(#304,#305);
#304=PRODUCT_DEFINITION_SHAPE('',$,#307);
#305=SHAPE_REPRESENTATION('',(#146),#297);
#306=PRODUCT_DEFINITION_CONTEXT('part definition',#311,'design');
#307=PRODUCT_DEFINITION('Part4','A00773',#308,#306);
#308=PRODUCT_DEFINITION_FORMATION('',$,#313);
#309=PRODUCT_RELATED_PRODUCT_CATEGORY('A00773','A00773',(#313));
#310=APPLICATION_PROTOCOL_DEFINITION('international standard',
'automotive_design',2009,#311);
#311=APPLICATION_CONTEXT(
'Core Data for Automotive Mechanical Design Process');
#312=PRODUCT_CONTEXT('part definition',#311,'mechanical');
#313=PRODUCT('Part4','A00773',$,(#312));
#314=PRESENTATION_STYLE_ASSIGNMENT((#315));
#315=SURFACE_STYLE_USAGE(.BOTH.,#318);
#316=SURFACE_STYLE_RENDERING_WITH_PROPERTIES($,#322,(#317));
#317=SURFACE_STYLE_TRANSPARENT(0.);
#318=SURFACE_SIDE_STYLE('',(#319,#316));
#319=SURFACE_STYLE_FILL_AREA(#320);
#320=FILL_AREA_STYLE('',(#321));
#321=FILL_AREA_STYLE_COLOUR('',#322);
#322=COLOUR_RGB('',0.745098039215686,0.737254901960784,0.729411764705882);
ENDSEC;
END-ISO-10303-21;
